» » »

In Flames, Dialouge With The Stars Tabs (ver.1)

Artists:  A B C D E F G H I J K L M N O P Q R S T U V W X Y Z # 

Dialouge With The Stars Tabs (ver.1)

In Flames Tabs
 Rating:
4/5 (4 votes)
Dialouge With The Stars lessons Tabs too difficult? Try these video lessons and learn fast
1
                Dialogue With The Stars by In Flames


 B= bend
 \= slide down
 /= slide up
 ~= vibrato

  Time 00:50
E|---------------------------------------------------------------------------
B|---------------------------------------------------------------------------
G|---------------------------------------------------------------------------
D|-2---x-x-x--2---x-x-x--2---x-x-x------------3------------------------------
A|-2---x-x-x--2---x-x-x--2---x-x-x---0--2--3-----2--3------------------------
e|-0---x-x-x--0---x-x-x--0---x-x-x-------------------------------------------

E|---------------------------------------------------------------------------
B|---------------------------------------------------------------------------
G|---------------------------------------------------3-----------------------
D|-2---x-x-x--2---x-x-x------------3--------0--2--3-----2--3-----------------
A|-2---x-x-x--2---x-x-x---0--2--3-----3--2-----------------------------------
e|-0---x-x-x--0---x-x-x------------------------------------------------------
  Play these two sections twice

E|---------------------------------------------------------------------------
B|---------------------------------------------------------------------------
G|------------------------------------------------------7--------------------
D|---9------9------9-------------------9--9-------7--9-----------------------
A|-------------10-----7------7--9--10---------10-----------------------------
e|---------------------------------------------------------------------------

E|---------------------------------------------------------------------------
B|---------------------------------------------------------------------------
G|--/-9---9--9------9----------------7--7------------------------------------
D|--------------10-----7---7--9--10---------10--9------7---------------------
A|-------------------------------------------------10------------------------
e|---------------------------------------------------------------------------

E|---------------------------------------------------------------------------
B|---------------------------------------------------------------------------
G|------------------------------------------------------7--------------------
D|---9---9--9------9-------------------9--9-------7--9-----------------------
A|-------------10-----7---7--7--9--10---------10-----------------------------
e|---------------------------------------------------------------------------

E|---------------------------------------------------------------------------
B|---------------------------------------------------------------------------
G|--/-9---9--9------9----------------7---------------------------------------
D|--------------10-----7---7--9--10-----10--9--7-----------------------------
A|------------------------------------------------10--9------7---------------
e|-------------------------------------------------------10------------------

E|---------------------------------------------------------------------------
B|---------------------------------------------------------------------------
G|---12---12--11--9--11--12----------11--9------9--11--12--9~\---------------
D|----B----B--------------B-----------------12-------------------------------
A|---------------------------------------------------------------------------
e|---------------------------------------------------------------------------

E|---------------------------------------------------------------------------
B|--------------------------------10--12--13--12--10------10--12--10--12-----
G|---12---12--11--9--11--12---------------------------12---------------------
D|----B----B--------------B--------------------------------------------------
A|---------------------------------------------------------------------------
e|---------------------------------------------------------------------------
            
Submit corrections

comments powered by Disqus
↑ Back to top | In Flames Tabs for Dialouge With The Stars. Lyrics for acoustic guitar and electric guitar. 1 Tablatures and chords are parodies/interpretations of the original songs. You may use it for private study, scholarship, research or language learning purposes only