» » »

Dead God In Me Bass tabs (ver.1)

Artists:  A B C D E F G H I J K L M N O P Q R S T U V W X Y Z # 

Dead God In Me Bass tabs (ver.1)

In Flames
Rating:
0/5 (0 votes)

Hard to play? Try these video lessons and learn fast.
                D#||-----------------------------------|------------------------------|
A#||--7------10------9------10--9--10--|--7------10------9------10----|
F ||-----------------------------------|------------------------------|
C ||-----------------------------------|------------------------------|


                                                                              
--------------------------------------|--------------------------------------|
--2--2--2-----------------------------|--2--2--2--------------------5--5--5--|
-----------2--2--2--3--3--3--0--0--0--|-----------2--2--2--3--3--3-----------|
--------------------------------------|--------------------------------------|


                                                                              
--------------------------------------|--------------------------------------|
--2--2--2-----------------------------|--2--2--2--------------------5--5--5--|
-----------2--2--2--3--3--3--0--0--0--|-----------2--2--2--3--3--3-----------|
--------------------------------------|--------------------------------------|


                                                                   
-----------------------------------|------------------------------|
--7------10------9------10--9--10--|--7------10------9------10----|
-----------------------------------|------------------------------|
-----------------------------------|------------------------------|


                                                                              
--------------------------------------|--------------------------------------|
--2--2--2-----------------------------|--2--2--2--------------------5--5--5--|
-----------2--2--2--3--3--3--0--0--0--|-----------2--2--2--3--3--3-----------|
--------------------------------------|--------------------------------------|


                                                                              
--------------------------------------|--------------------------------------|
--2--2--2-----------------------------|--2--2--2--------------------5--5--5--|
-----------2--2--2--3--3--3--0--0--0--|-----------2--2--2--3--3--3-----------|
--------------------------------------|--------------------------------------|


                                                                             
----------------------|----------------------|------------------------------|
------------2---------|-----------------2----|--7------10------9------10----|
--3----5---------2----|--3---------5---------|------------------------------|
----------------------|-------3--------------|------------------------------|


                                                                              
--------------------------------------|--------------------------------------|
--2--2--2-----------------------------|--2--2--2--------------------5--5--5--|
-----------2--2--2--3--3--3--0--0--0--|-----------2--2--2--3--3--3-----------|
--------------------------------------|--------------------------------------|


                                                                              
--------------------------------------|--------------------------------------|
--2--2--2-----------------------------|--2--2--2--------------------5--5--5--|
-----------2--2--2--3--3--3--0--0--0--|-----------2--2--2--3--3--3-----------|
--------------------------------------|--------------------------------------|


                                                                   
-----------------------------------|------------------------------|
--7------10------9------10--9--10--|--7------10------9------10----|
-----------------------------------|------------------------------|
-----------------------------------|------------------------------|


                                                                              
--------------------------------------|--------------------------------------|
--2--2--2-----------------------------|--2--2--2--------------------5--5--5--|
-----------2--2--2--3--3--3--0--0--0--|-----------2--2--2--3--3--3-----------|
--------------------------------------|--------------------------------------|


                                                                              
--------------------------------------|--------------------------------------|
--2--2--2-----------------------------|--2--2--2--------------------5--5--5--|
-----------2--2--2--3--3--3--0--0--0--|-----------2--2--2--3--3--3-----------|
--------------------------------------|--------------------------------------|


                                                                   
----------------------|----------------------|--------------------|
------------2---------|-----------------2----|--------------------|
--3----5---------2----|--3---------5---------|--------------------|
----------------------|-------3--------------|--3--------3--------|


                                                        
--------------------|----------------------------------|
--------------------|----------------------------------|
--------------------|----------------------------------|
--2--------2--------|--3-3-3-3-3-3-3-3-3-3-3-3-3-3-3-3-|


                                                                      
----------------------------------|----------------------------------|
----------------------------------|----------------------------------|
----------------------------------|--3-3-3-3-3-3-3-3-3-3-3-3-3-3-3-3-|
--2-2-2-2-2-2-2-2-2-2-2-2-2-2-2-2-|----------------------------------|


                                                                      
----------------------------------|----------------------------------|
----------------------------------|----------------------------------|
--1-1-1-1-1-1-1-1-1-1-1-1-1-1-1-1-|----------------------------------|
----------------------------------|--3-3-3-3-3-3-3-3-3-3-3-3-3-3-3-3-|


                                                                      
----------------------------------|----------------------------------|
----------------------------------|----------------------------------|
----------------------------------|--3-3-3-3-3-3-3-3-3-3-3-3-3-3-3-3-|
--2-2-2-2-2-2-2-2-2-2-2-2-2-2-2-2-|----------------------------------|


                                                                      
----------------------------------|----------------------------------|
----------------------------------|----------------------------------|
--1-1-1-1-1-1-1-1-1-1-1-1-1-1-1-1-|----------------------------------|
----------------------------------|--3-3-3-3-3-3-3-3-3-3-3-3-3-3-3-3-|


                                                                      
----------------------------------|----------------------------------|
----------------------------------|----------------------------------|
----------------------------------|--3-3-3-3-3-3-3-3-3-3-3-3-3-3-3-3-|
--2-2-2-2-2-2-2-2-2-2-2-2-2-2-2-2-|----------------------------------|


                                                                      
----------------------------------|----------------------------------|
----------------------------------|----------------------------------|
--1-1-1-1-1-1-1-1-1-1-1-1-1-1-1-1-|----------------------------------|
----------------------------------|--3-3-3-3-3-3-3-3-3-3-3-3-3-3-3-3-|


                                                                      
----------------------------------|----------------------------------|
----------------------------------|----------------------------------|
----------------------------------|--3-3-3-3-3-3-3-3-3-3-3-3-3-3-3-3-|
--2-2-2-2-2-2-2-2-2-2-2-2-2-2-2-2-|----------------------------------|


                                                                          
----------------------------------|-------------------|------------------|
----------------------------------|-------------------|------------------|
--1-1-1-1-1-1-1-1-1-1-1-1-1-1-1-1-|-------------------|------------------|
----------------------------------|--3----------------|------------------|


                                                                        
------------------|------------------------------|---------------------|
------------------|------------------------------|--------2------------|
------------------|------------------------------|---------------------|
------------------|--3-3-3-3-3--3--2-2-2-2-2--2--|--0--0---------------|


                                                   
----------------------------|---------------------|
---------2--2---------2--2--|---------------------|
----------------------------|--------5------------|
--0-0--0-------0-0--0-------|--0--0---------------|


                                                     
------------------------------|---------------------|
------------------------------|--------2------------|
------------------------------|---------------------|
--3-3-3-3-3--3--2-2-2-2-2--2--|--0--0---------------|


                                                   
----------------------------|---------------------|
---------2--2---------2--2--|---------------------|
----------------------------|--------5------------|
--0-0--0-------0-0--0-------|--0--0---------------|


                                                     
------------------------------|---------------------|
------------------------------|--------2------------|
------------------------------|---------------------|
--3-3-3-3-3--3--2-2-2-2-2--2--|--0--0---------------|


                                                   
----------------------------|---------------------|
---------2--2---------2--2--|---------------------|
----------------------------|--------5------------|
--0-0--0-------0-0--0-------|--0--0---------------|


                                                     
------------------------------|---------------------|
------------------------------|--------2------------|
------------------------------|---------------------|
--3-3-3-3-3--3--2-2-2-2-2--2--|--0--0---------------|


                                                   
----------------------------|---------------------|
---------2--2---------2--2--|---------------------|
----------------------------|--------5------------|
--0-0--0-------0-0--0-------|--0--0---------------|


                                                     
------------------------------|---------------------|
------------------------------|--------2------------|
------------------------------|---------------------|
--3-3-3-3-3--3--2-2-2-2-2--2--|--0--0---------------|


                                                   
----------------------------|---------------------|
---------2--2---------2--2--|---------------------|
----------------------------|--------5------------|
--0-0--0-------0-0--0-------|--0--0---------------|


                                                     
------------------------------|---------------------|
------------------------------|--------2------------|
------------------------------|---------------------|
--3-3-3-3-3--3--2-2-2-2-2--2--|--0--0---------------|


                                                   
----------------------------|---------------------|
---------2--2---------2--2--|---------------------|
----------------------------|--------5------------|
--0-0--0-------0-0--0-------|--0--0---------------|


                                                          
------------------------------|--------------------------|
------------------------------|--------------------------|
------------------------------|--------------------------|
--3-3-3-3-3--3--2-2-2-2-2--2--|--0--0--0--0--0--0--0--0--|


                                                      
--------------------------|--------------------------|
--------------------------|--------------------------|
--------------------------|--------------------------|
--0--0--0--0--0--0--0--0--|--3--3--3--3--3--3--3--3--|


                                                      
--------------------------|--------------------------|
--------------------------|--------------------------|
--------------------------|--------------------------|
--2--2--2--2--2--2--2--2--|--0--0--0--0--0--0--0--0--|


                                                      
--------------------------|--------------------------|
--------------------------|--------------------------|
--------------------------|--------------------------|
--0--0--0--0--0--0--0--0--|--3--3--3--3--3--3--3--3--|


                                                                               
--------------------------|-------------------------|-------------------------|
--------------------------|-------------------------|-------------------------|
--------------------------|--0-------------5--------|--0-------------5--------|
--2--2--2--2--2--2--2--2--|-----------3-------------|-----------3-------------|


                                                                              
-------------------------|-------------------------|-------------------------|
-------------------------|-------------------------|-------------------------|
--2-------------7--------|--2-------------7--------|--0-------------5--------|
-----------5-------------|-----------5-------------|-----------3-------------|


                                                                                
-------------------------|--------------------------|--------------------------|
-------------------------|--2--2--4--5--------0-----|--2--2--4--5--------0-----|
--0-------------5--------|--------------2--4-----2--|--------------2--4-----2--|
-----------3-------------|--------------------------|--------------------------|


                                                                            
--------------------------|--------------------------|---------------------|
--------------------------|--------------------------|---------------------|
--------------------------|--------------------------|--5----5--------2----|
--0--0--0--0--2--2--2--2--|--3--3--3--3--5--5--5--5--|---------------------|


                                                                            
---------------------|--------------------------|--------------------------|
---------------------|--2--2--4--5--------0-----|--2--2--4--5--------0-----|
--3----3--------0----|--------------2--4-----2--|--------------2--4-----2--|
---------------------|--------------------------|--------------------------|


                                                                            
--------------------------|--------------------------|---------------------|
--------------------------|--------------------------|---------------------|
--------------------------|--------------------------|--5----5--------2----|
--0--0--0--0--2--2--2--2--|--3--3--3--3--5--5--5--5--|---------------------|


                                                              
---------------------|-------------------|------------------||
---------------------|-------------------|------------------||
--3----3--------0----|-------------------|------------------||
---------------------|--0----------------|------------------||
            
Hard to play? Try these video lessons and learn fast. | Correct




comments powered by Disqus
↑ Back to top | Tablatures and chords are parodies/interpretations of the original songs. You may use it for private study, scholarship, research or language learning purposes only