» » »

India Arie, Get It Together Tabs (ver.2)

Artists:  A B C D E F G H I J K L M N O P Q R S T U V W X Y Z # 

Get It Together Tabs (ver.2)

India Arie Tabs
Rating:
4/5 (1 vote)
Get It Together lessons Tabs too difficult? Try these video lessons and learn fast
                _____________
Verse, Chorus
        Dmi7              Ami             Emi7             Fmaj
e|----1---1-0-----|--5-------5-----|----------------|--8---8-8---8---|
B|----1---1---1---|--5-------5-----|----8---8-7-----|--10--1010--10--|
G|----2---2-------|--5-------5-----|----7---7---7---|--8---8-8---8---|
D|0-------0-------|----------------|----9---9-------|----------------|
A|----------------|----------------|7-------------8-|------8---------|
E|--------------5-|------5---------|----------------|----------------|


______
Bridge
       Ami              Bbmaj         Bmi7  E7/11 Fmaj
e|----8-----------|------1---------|----1-----3---0-|------5---------|
B|----10-10-------|----3-----------|----3-----3---1-|------------5---|
G|----9-----------|--2-------------|----2---2-----2-|----------5-----|
D|----------------|----------------|----------------|--------7-----7-|
A|0---------------|1---------------|2---------------|----------------|
E|----------------|----------------|------0-------1-|----------------|

         D                E         Ami9       Bbmaj9
e|----------------|----------------|----------------|----------------|
B|------7---------|------9---------|12------------13|----------------|
G|----7-----7-----|----9-----9-----|-14------------14----------------|
D|--7---------7---|--9---------9---|----------------|----------------|
A|9--------------11----------------|12------------13|----------------|
E|----------------|----------------|----------------|----------------|


_______
Bridge2 - this is not accurate, just a draft

e|10------12------|8-------7---12--|10------12------|8-------8-------|
B|11------11------|10------8---13--|11------11------|10------10------|
G|10------12------|10------9---14--|12------12------|10------9-------|
D|----------------|----------------|----------------|----------------|
A|----------------|----------------|----------------|----------------|
E|----------------|----------------|----------------|----------------|
            
Submit corrections

comments powered by Disqus
↑ Back to top | India Arie Tabs for Get It Together. Lyrics for acoustic guitar and electric guitar. Tablatures and chords are parodies/interpretations of the original songs. You may use it for private study, scholarship, research or language learning purposes only