» » »

Impending Doom, For All Have Sinned Bass tabs (ver.1)

Artists:  A B C D E F G H I J K L M N O P Q R S T U V W X Y Z # 

For All Have Sinned Bass tabs (ver.1)

Impending Doom Tabs
 Rating:
4/5 (4 votes)
For All Have Sinned lessons Tabs too difficult? Try these video lessons and learn fast
1
                Impending Doom-For All Have Sinned

Bassist: David Sattig
Lenght: 2:43

_____________________________________

Impending Doom-For All Have Sinned
----------------------------------

4 string bass drop A tuning ( low to high A E A D )

Dynamic marking = fff = very very loud

----------------------------------------------------

A. Intro (0:00)

bpm = moderately 142

4/4
   W                 Q  Q   E E E E   W                 Q  H.
D|-----------------|----------------|-----------------|----------------|
A|-----------------|----------------|-----------------|----------------|
E|-----------------|----------------|-----------------|----------------|
A|-4---------------|-4------4-3-0-1-|-4---------------|-4--------------|

B. Verse (0:07)

   E E E E E E E E   E E E E E E E E   E E E E E E E E   E E E E E E E E 
|------------------|-----------------|-----------------|-------------------|
|.-4-----7-3-------|-4-----7-3-------|-4-----7-3-------|-4-----7-3--------.|
|.-----------------|-----------------|-----------------|------------------.|
|----4-3-----4-0-1-|---4-3-----4-0-1-|---4-3-----4-0-1-|---4-3------4-0-1--|

  W                                    Q   H.
|------------------------------------|------------------------------------||
|------------------------------------|------------------------------------||
|------------------------------------|------------------------------------||
|-0----------------------------------|-0----------------------------------||

C. Verse Part II (0:25)

  E E E E E E E E   E E E E E E E E   E E E E E E E E   E E E E E E E E 
|-----------------|-----------------|-----------------|-----------------|
|-----------------|-----------------|-----------------|-----------------|
|-----4-3-------4-|-----4-3-------4-|-----4-3-------4-|-----4-3-------4-|
|-2-1-----4-3-2---|-2-1-----4-3-2---|-2-1-----4-3-2---|-2-1-----4-3-2---|

  E E E E E E E E   E E E E E E E E   E E E E E E E E   E E E E E E E E
|-----------------|-----------------|-----------------|-----------------||
|-----8-7---------|-----8-7---------|-----8-7---------|-----8-7---------||
|---------4-3---4-|---------4-3---4-|---------4-3---4-|---------4-3---4-||
|-2-1---------2---|-2-1---------2---|-2-1---------2---|-2-1---------2---||

D. Breakdown (0:40)

3/4
  S S E E E E E   S S E E E E E   S S E E E E E   S S E E E E E 
|---------------|---------------|---------------|---------------|
|---------------|---------------|---------------|---------------|
|---------------|---------------|---------------|---------------|
|-0-0-1-0-3-0-2-|-0-0-1-0-3-0-2-|-0-0-1-0-3-0-2-|-0-0-1-0-3-0-2-|

4/4
  S S S S  H.          S S E E E E E E E   E E  E E E E E E
|--------------------|-------------------|------------------|
|--------------------|-------------------|------------------|
|--------------------|-------------------|------------------|
|-0-0-0-0------------|-0-0-1-0-3-0-2-0-1-|-0----0-1-0-3-0---|

  E E E E E E  E E   E E E E  E E E E   E E  E E E E E E 
|------------------|------------------|-------------------|
|------------------|------------------|-------------------|
|------------------|------------------|-------------------|
|-0-1-0-3-0----0-1-|-0-3-0----0-1-0-3-|-0----0-1-0-3-0----|

                    1/4            4/4
  E E E E E E  E E     S S S S         H.      E  E
|------------------|-------------||-----------------|
|------------------|-------------||-----------------|
|------------------|-------------||-----------------|
|-0-1-0-3-0----0-1-|---0-0-0-0---||------------4----|

E. Verse II (1:01)

   E E E E E E E E   E E E E E E E E   E E E E E E E E   E E E E E E E E 
|------------------|-----------------|-----------------|------------------|
|.-----------------|-----------------|-----------------|-----------------.|
|.---6-3---5-2-----|---6-3---5-2-----|---6-3---5-2-----|---6-3---5-2-----.|
|--4-----3-----3-0-|-4-----3-----3-0-|-4-----3-----3-0-|-4-----3-----3-0--|

F. Breakdown (1:15)

bpm = slower 130

  E E E E E E E E   E E E E E E E E   E E E E E E E E   E E E E E E E E 
|-----------------|-----------------|-----------------|-----------------|
|-----------------|-----------------|-----------------|-----------------|
|-----------------|-----------------|-----------------|-----------------|
|-0-1-1-0-1-1-0-1-|-0-1-1-0-1-1-0-1-|-0-1-1-0-1-1-0-1-|-0-1-1-0-1-1-0-1-|

  E E E E E E Q     E E E E E E E E   E E E E E E E E   E E E E E E E E 
|-----------------|-----------------|-----------------|-----------------|
|-----------------|-----------------|-----------------|-----------------|
|-----------------|-----------------|-----------------|-----------------|
|-0-1-1-0-1-2-3b--|-0-1-1-0-1-1-0-1-|-0-1-1-0-1-1-0-1-|-0-1-1-0-1-1-0-1-|

  E E E E E E E E
|-----------------||
|-----------------||
|-----------------||
|-0-1-1-0-1-1-0-1-||

G. Bridge (1:32)

bpm = faster 142

8/4
  E E E E E E E E E E E E E E E E   E E E E E E E E E E E E E E E E 
|---------------------------------|---------------------------------|
|---------------------------------|---------------------------------|
|-6-2-6-2-5-1-5-1-6-2-6-2-5-1-----|-6-2-6-2-5-1-5-1-6-2-6-2-5-1-----|
|-----------------------------4-0-|-----------------------------4-0-|

  E  E E  E E  E E  E E  E E  E E  E E E 
|----------------------------------------|
|----------------------------------------|
|-11-7-11-7-10-6-10-6-11-7-11-7-10-6-----|
|------------------------------------7-3-|

  E  E E  E E  E E  E E  E E  E E  E E E 
|----------------------------------------|
|----------------------------------------|
|-11-7-11-7-10-6-10-6-11-7-11-7-10-6-----|
|------------------------------------7-3-|

  W               H       E S S S S S S   W                W 
|---------------------------------------|----------------------------------|
|---------------------------------------|----------------------------------|
|---------------------------------------|----------------------------------|
|-0---------------L-------L-0-0-0-0-0-0-|-0----------------18\-------------|

bpm = slower 130

4/4
  W                W                W                Q  H.
|----------------|----------------|----------------|-----------------|
|----------------|----------------|----------------|-----------------|
|----------------|----------------|----------------|-----------------|
|-0--------------|-L--------------|-0--------------|-0---------------|

H. Breakdown (2:02)

  Q    Q    Q    Q   Q    Q    Q    Q   Q    Q    Q    Q   Q   Q    Q  E E 
|------------------|------------------|------------------|-----------------|
|------------------|------------------|------------------|-----------------|
|------------------|------------------|------------------|-----------------|
|-3----2----1----3-|-3----2----1----3-|-3----2----1----3-|-3---2----1--3---|

  Q    Q    Q    Q   Q    Q    Q    Q   Q    Q    Q    Q   Q  H.
|------------------|------------------|------------------|-----------------|
|------------------|------------------|------------------|-----------------|
|------------------|------------------|------------------|-----------------|
|-3----2----1----3-|-3----2----1----3-|-3----2----1----3-|-3---------------|

  Q    Q    Q    Q   Q    Q    Q    Q   Q    Q    Q    Q   Q   Q    Q  E E
|------------------|------------------|------------------|-----------------|
|------------------|------------------|------------------|-----------------|
|------------------|------------------|------------------|-----------------|
|-3----2----1----3-|-3----2----1----3-|-3----2----1----3-|-3---2----1--3---|
 
  Q    Q    Q    Q   Q    Q    Q    Q   Q    Q    Q    Q   Q    Q    Q   Q 
|------------------|------------------|------------------|-----------------|
|------------------|------------------|------------------|-----------------|
|------------------|------------------|------------------|-----------------|
|-3----2----1----3-|-3----2----1----3-|-3----2----1----3-|-3----2----1---3-|

  Q  H.              W                  W                  W
|------------------|------------------|------------------|----------------||
|------------------|------------------|------------------|----------------||
|------------------|------------------|------------------|----------------||
|-1----------------|------------------|------------------|----------------||


____________________________________________________________________________


Duration Legend
---------------
W - whole
H - half
Q - quarter
E - 8th
S - 16th
T - 32nd
X - 64th
. - note dotted
|-n-|  - n-tuplets
a duration mark without a fretted number underneath it is a rest.


Tablature Legend
----------------
L - tied note
x - dead note
g - grace note
(n) - ghost note
> - accentuded note
NH - natural harmonic
AH - artificial harmonic
TH - tapped harmonic
SH - semi harmonic
PH - pitch harmonic
h - hammer on
p - pull off
b - bend
br - bendRelease
pb - preBend
pbr - preBendRelease
brb - bendReleaseBend
\n/ - tremolo bar dip
\n - tremolo bar dive
-/n - tremolo bar Release up
/n\ - tremolo bar inverted dip
/n - tremolo bar return
-\n - tremolo bar Release down
S - shift slide
s - legato slide
/ -  slide into from below or out of upwards
\ -  slide into from above or out of downwards
~ - vibrato
W - wide vibrato
tr - trill
TP - tremolo picking
T - tapping
S - slap
P - pop
< - fade in
^ - brush up
v - brush down
__________________________________________________________________________

Impending Doom-For All Have Sinned

Blasphemers your wickedness will not go unpunished, 
For he crushes his oppressors and embraces his righteous! 
Those who call upon his name for strength shall be blessed.
Standing by my faith is where I belong; 
Facing trials and oppression makes me strong.
But I am a good person, oh no we're not! 
Evil men walk in heaven through repentance, 
Good men sizzle through ignorance.
Do not talk down on what you don't know, or there will be hell to pay.
For he crushes his oppressors.
__________________________________________________________________________

Thanks That's My Bass Tab

Please Rate and comment
and corrections are welcome

Thanks

-^SiVART^
            
Submit corrections

comments powered by Disqus
↑ Back to top | Impending Doom Bass for For All Have Sinned. Lyrics for acoustic guitar and electric guitar. 1 Tablatures and chords are parodies/interpretations of the original songs. You may use it for private study, scholarship, research or language learning purposes only