» » »

Impending Doom, For All Have Sinned Tabs (ver.1)

Artists:  A B C D E F G H I J K L M N O P Q R S T U V W X Y Z # 

For All Have Sinned Tabs (ver.1)

Impending Doom Tabs
 Rating:
4.6/5 (9 votes)
For All Have Sinned lessons Tabs too difficult? Try these video lessons and learn fast
                0-22 tremolo picked

B--------------------|
F#-------------------|
D--------------------|
A-4-----7--3---------|
E--------------------|
A---4-3------4-0-1---|

22-40 tremolo picked

B------------------|---------------------|
F#-----------------|---------------------|
D------------------|---------------------|
A------------------|------8 -7-----------|
E------4-3-------4-|-----------4-3---4---|
A-2-1------4-3-2---|--2-1----------2-----|

40-1:00

B----------------------|
F#---------------------|
D--------------|-------|
A-00-1-0-3-0-2-|-0000--|
E-00-1-0-3-0-2-|-0000--|
A-00-1-0-3-0-2-|-0000--|

B-------------------------------------------------------------------|
F#------------------------------------------------------------------|
D-------------------------------------------------------------------|
A-00-1-0-3-0-2-0-1-0----0-1-0-3-0----0-1-0-3-0------0-1-0-3-0-------|
E-00-1-0-3-0-2-0-1-0-8*-0-1-0-3-0--1*-0-1-0-3-0--8*--0-1-0-3-0-1*---|
A-00-1-0-3-0-2-0-1-0----0-1-0-3-0----0-1-0-3-0------0-1-0-3-0-------|

1:00-1:15 tremolo picked

B--------------------|
F#-------------------|
D--------------------|
A--------------------|
E---6-3----5-2-------|
A-4------3----3-0----|

1:18-1:32

B----------------------------------------------------------|
F#---------------------------------------------------------|
D----------------------------------------------------------|
A-0-11-0-11-0-1-0-11-0-11-0-1-0-11-0-11-0-1-0-11-0-1-------|
E-0-11-0-11-0-1-0-11-0-11-0-1-0-11-0-11-0-1-0-11-0-1-------|
A -0-11-0-11-0-1-0-11-0-11-0-1-0-11-0-11-0-1-0-11-0-1-2-b3-|

1:18-1:48 tremolo picked

B--------------------------------|-------------------------------------------|
F#--------------------------------|------------------------------------------|
D--------------------------------|-------------------------------------------|
A--------------------------------|-------------------------------------------|
E-6-2-6-2-5-1-5-1-6-2-6-2-5-1----|-11-7-11-7-10-6-10-6-11-7-11-7-10-6--------|
A----------------------------4-0-|------------------------------------7-3----|

1:48-2:36

B-----------------|
F#----------------|
D-----------------|
A-0-----000000-0--|
E-0-----000000-0--|
A-0-----000000-0--|

B------------------------------|
F#-----------------------------|
D------------------------------|
A-2-1-0-22-1-0-22-1-0-22-1-0-2-|
E-2-1-0-22-1-0-22-1-0-22-1-0-2-|
A-3-2-1-33-2-1-33-2-1-33-2-1-3-|
            
Submit corrections

comments powered by Disqus
↑ Back to top | Impending Doom Tabs for For All Have Sinned. Lyrics for acoustic guitar and electric guitar. Tablatures and chords are parodies/interpretations of the original songs. You may use it for private study, scholarship, research or language learning purposes only