» » »

Impaled Nazarene, Armageddon Death Squad Tabs (ver.2)

Artists:  A B C D E F G H I J K L M N O P Q R S T U V W X Y Z # 

Armageddon Death Squad Tabs (ver.2)

Impaled Nazarene Tabs
Rating:
0/5 (0 votes)
Armageddon Death Squad lessons Tabs too difficult? Try these video lessons and learn fast
                Impaled Nazarene - Armageddon Death Squad


riff 1 (0:04-0:10)
E--------------------------------------------------------------------|
B--------------------------------------------------------------------|
G--------------------------------------------------------------------|
D---------------------2--3/6/3-2--3/5/3-2--3/5/3---------------------|
A------1111------1111-0--1/4/1-0--1/3/1-0--1/4/1------1111------1111-|
E-0000------0000---------------------------------0000------0000------|
  .... .... .... ....                            .... .... .... ....

riff 2 (0:10-0:31)
E--------------------------------------------------------------------|
B--------------------------------------------------------------------|
G--------------------------------------------------------------------|
D----------3/6/3----------3/5/3----------3/6/3-----------------------|
A-00000000-1/4/1-00000000-1/3/1-00000000-1/4/1------1111------1111---|
E----------------------------------------------0000------0000--------|
  ........       ........       ........       .... .... .... ....

riff 3  (0:31-0:51)                                ending in 0:52
E--------------------------------------------------|-------------------|
B--------------------------------------------------|-------------------|
G--------------------------------------------------|-------------------|
D-333333-22-33----------7-7-5--7-7-5--7-7-9-109-5--|-------------------|
A--------------3333333--5-5-3--5-5-3--5-5-7-8-7-3--|-00000000-33333333-|
E--------------------------------------------------|-------------------|


riff 4 (1:38-2:09)
E--------------------------------------|----------------------------------|
B--------------------------------------|----------------------------------|
G--------------------------------------|----------------------------------|
D--------------------------------------|----------------------------------|
A-00000000-1-00000-3-000000-1-00000000-|-3333333-4-33333-6-33333-4-333333-|
E--------------------------------------|----------------------------------|

(2:33)
E------|
B------|
G------|
D-2----|
A-0----|let ring
E------|

(2:38) same as riff4, but start with..
E--------------------...
B--------------------...
G--------------------...
D--------------------...
A-33333333-4-33333-6-...
E--------------------...

ending
E----------------|
B----------------|
G----------------|
D-5-3-2-3-5-3-2--|
A-3-1-0-1-3-1-0--|
E----------------|
            
Submit corrections

comments powered by Disqus
↑ Back to top | Impaled Nazarene Tabs for Armageddon Death Squad. Lyrics for acoustic guitar and electric guitar. Tablatures and chords are parodies/interpretations of the original songs. You may use it for private study, scholarship, research or language learning purposes only