» » »

Immortal, Frozen By Icewinds Tabs (ver.1)

Artists:  A B C D E F G H I J K L M N O P Q R S T U V W X Y Z # 

Frozen By Icewinds Tabs (ver.1)

Immortal Tabs
 Rating:
4/5 (4 votes)
Frozen By Icewinds lessons Tabs too difficult? Try these video lessons and learn fast
1
                #------------------------------------PLEASE  NOTE----------------------------------------------#

G: Immortal - Frozen by icewinds


Band   Immortal



. - palm mute / - slide up to
 - slide down to ~ - vibrato
h - hammer on p - pull off
, - slight palm mute [] - second guitar
" " tremolo note <> - Trill

Suffixes for bend
f - full bend h - half bend
ph - pinched harmonic q - quarter bend
t - tap bend * - see comment
^ - Hold bend r - release bend
x – Staccato ~ - vibrato bend

Tuning E A D G B E


Riff 1
|-----------------------------|-------------------|
|-----------------------------|-------------------|
|--1---2---1----1--2----3-----|---3----4----------|
|--3---3---3----3--3----3-----|---3----3----------|
|--"---"---"----"--"----"-----|---"----"----------|
|-----------------------------|-------------------|
                                                 x3
Riff 1, Gtr 2
|-----------------------------|-------------------------------|
|-----------------------------|-------------------------------|
|-----------------------------|-------------------------------|
|--3---4-4-4--4----3---4-4-4--|---4---3---4-4-4----/6--7------|
|--3---4-4-4--4----3---4-4-4--|---4---3---4-4-4----/6--7------|
|--1---2-2-2--2----1---2-2-2--|---2---1---2-2-2----/4--5------|

Riff 2
|--------------------------------------------------|
|--------------------------------------------------|
|--[4]-----------------[4]-------------------------|
|--[3]---4-4-4---3-----[3]-----4-4-4-4--4---3------|
|--------4-4-4---3-------------4-4-4-4--4---3------|
|--------2-2-2---1-------------2-2-2-2--2---1------|
         . . .                 . . . .  .         x4
Play Riff 1 x 3

Fill 1
|------------------------------------------|
|------------------------------------------|
|--1---2--1---1^--2---1--2--1---2p---0-----|
|--3---3--3---3---3---3--3--3---3p---3-----|
|------------------------------------------|
|------------------------------------------|
                                          x2
Fill 1, Gtr 2 (Played at second turn)
|------------------------------------------|
|------------------------------------------|
|------------------------------------------|
|--2----3--4----2----3--4---2----3--4------|
|--2----3--4----2----3--4---2----3--4------|
|--0------------0-----------0--------------|
   .            .           .             x1
Riff 3
|-------------------------------|-------------------------------|
|-------------------------------|-------------------------------|
|-----------------------1-------|-----------------------1---2---|
|----------4------------3-------|----------4------------3---3---|
|--2--6----2---2--6-----"-------|--2--6----2---2--6-----"---"---|
|--0--4----"---0--4-------------|--0--4----"---0--4-------------|
   "  "        "  "                "  "        "  "            x2

Fill 2
|--------------------------------------|
|--------------------------------------|
|------1---2-------1--2-------1---2----|
|--3---3---3---3---3--3---3---3---3----|
|--3-----------3----------3------------|
|--1-----------1----------1------------|
                                      x2
Play Riff 3 x 2

Play Riff 2 x 2

Riff 4
|--------------------------------------|
|--------------------------------------|
|--1--2----1--1^---2---1---------------|
|--3--3----3--3----3---3---------------|
|--------------------------------------|
|--------------------------------------|
                                      x2
Play Riff 2 x 4

Interlude bit:
(Appregiate 2nd and 3rd ending notes)

                          2nd ending          3rd ending
|------3p--2--3p--2p-1---|------1------------|-------4-------5----|
|--2---------------------|---------2---------|-----4------5-------|
|--0---------------------|--2---------2------|--2------3----------|
|------------------------|--0----------------|--------------------|
|------------------------|-------------------|--------------------|
|------------------------|-------------------|--------------------|
                                                                 x2
Play Riff 1 x 4

Play Fill 2 x 2

Play Riff 3 x 4

Play Fill 2 x 2

Play Riff 3 x 2

Play Riff 3 x 2 Under solo

End.
            
Submit corrections

comments powered by Disqus
↑ Back to top | Immortal Tabs for Frozen By Icewinds. Lyrics for acoustic guitar and electric guitar. 1 Tablatures and chords are parodies/interpretations of the original songs. You may use it for private study, scholarship, research or language learning purposes only