>
 >
Rally

Rally Guitar Tabs

Illscarlett - Rally chords, tabs, tablatures, lyrics

Guitar lessons | Add/correct | Request | Top 50 tabs Artists:  A B C D E F G H I J K L M N O P Q R S T U V W X Y Z 0-9

Rally Guitar Tabs – Illscarlett

CD, Sheet music, Poster

Do you like Rally? Share with your friends now
Bass TabsTabs
[illScarlet]
[Rally]
[illP]


Tuning: Standard Tuning


-------------------------------------------------------------------------


[Guitar 1] - [00:00] - [04:35]


[Intro] - [00:00] - [00:22]
- -------5-------5---------------5-------5---------------5-------5-------|
- -6-5h6---6-5-8-----------6-5h6---6-5-8-----------6-5h6---6-5-8---------|
- -----------------4-7~--------------------4-7~--------------------4-7~--|
- -----------------------------------------------------------------------|
- -----------------------------------------------------------------------|
- -----------------------------------------------------------------------|

  -------5-------5---------|
  -6-5h6---6-5-8-----------|
  -----------------4-7~----|
  -------------------------|
  -------------------------|
  -------------------------|

[Verse 1] - [00:22] - [00:42]
- -1-1-1-1-1-x1~-1-1-1-1-1-1-1-x1~-1-1-1-1-1-1-1-x1~-1-1-1-1-1-1-1-x1~-|
- -3-3-3-3-3-x3~-3-3-3-3-3-3-3-x3~-3-3-3-3-3-3-3-x3~-3-3-3-3-3-3-3-x3~-|
- ---------------------------------------------------------------------|
- ---------------------------------------------------------------------|
- ---------------------------------------------------------------------|
- ---------------------------------------------------------------------|

  -1-1-1-1-1-1-1-x1~-1-|
  -3-3-3-3-3-3-3-x3~-3-|
  ---------------------|
  ---------------------|
  ---------------------|
  ---------------------|

[Pre-Chorus 1] - [00:42] - [01:01---------------------------------------|
- -1-3-5-3-1-x1~-1-1-1-3-5-3-1-x1~-1-1-1-3-5-3-1-x1~-1-1-1-3-5-3-1-x1~--|
- -3-3-3-3-3-x3~-3-3-3-3-3-3-3-x3~-3-3-3-3-3-3-3-x3~-3-3-3-3-3-3-3-x3~--|
- ----------------------------------------------------------------------|
- ----------------------------------------------------------------------|
- ----------------------------------------------------------------------|
- ----------------------------------------------------------------------|

  -1-1-1-3-5-3-1-x1~-1-1-|
  -3-3-3-3-3-3-3-x3~-3-3-|
  -----------------------|
  -----------------------|
  -----------------------|
  -----------------------|

[Chorus 1] - [01:01] - [01:20]
- -1-1-1-1-3-0-0-0--1-1-1-1-3-3-3-3--1-1-1-1-3-0-0-0--1-1-1-1-0~-|
- -3-3-1-1-1-1-1-1--3-3-1-1-1-1-1-1--3-3-1-1-1-1-1-1--3-3-1-1-1~-|
- ---------------------------------------------------------------|
- ---------------------------------------------------------------|
- ---------------------------------------------------------------|
- ---------------------------------------------------------------|

[Verse 2] - [01:20] - [01:40]
- -10-10-10-10-10-x10~-10-10-10-10-10-10-10-x10~-10-10-10-10-10-x10~-|
- -6--6--6--6--6--x6~--6--6--6--6--6--6--6--x6~--6--6--6--6--6--x6~--|
- -------------------------------------------------------------------|
- -------------------------------------------------------------------|
- -------------------------------------------------------------------|
- -------------------------------------------------------------------|

  -10-10-10-10-10-x10~-10-|
  -6--6--6--6--6--x6~--6--|
  ------------------------|
  ------------------------|
  ------------------------|
  ------------------------|

[Pre-Chorus 2] - [01:40] - [01:59---------------------------------------|
- -1-3-5-3-1-x1~-1-1-1-3-5-3-1-x1~-1-1-1-3-5-3-1-x1~-1-1-1-3-5-3-1-x1~--|
- -3-3-3-3-3-x3~-3-3-3-3-3-3-3-x3~-3-3-3-3-3-3-3-x3~-3-3-3-3-3-3-3-x3~--|
- ----------------------------------------------------------------------|
- ----------------------------------------------------------------------|
- ----------------------------------------------------------------------|
- ----------------------------------------------------------------------|

  -1-1-1-3-5-3-1-x1~-1-1-|
  -3-3-3-3-3-3-3-x3~-3-3-|
  -----------------------|
  -----------------------|
  -----------------------|
  -----------------------|

[Chorus 2] - [01:59] - [02:19]
- -1-1-1-1-3-0-0-0--1-1-1-1-3-3-3-3--1-1-1-1-3-0-0-0--1-1-1-1-0~-|
- -3-3-1-1-1-1-1-1--3-3-1-1-1-1-1-1--3-3-1-1-1-1-1-1--3-3-1-1-1~-|
- ---------------------------------------------------------------|
- ---------------------------------------------------------------|
- ---------------------------------------------------------------|
- ---------------------------------------------------------------|

[Interlude] - [02:19] - [02:59]
- -1~--3~--3~----5~--3~--3~----1~--3~--3~----5~--3~--3~----|
- -1~--3~--3~----6~--3~--3~----1~--3~--3~----6~--3~--3~----|
- -2~--5~--4~----7~--5~--4~----2~--5~--4~----7~--5~--4~----|
- -3~--5~--5~----7~--5~--5~----3~--5~--5~----7~--5~--5~----|
- -3~--3~--5~----5~--3~--5~----3~--3~--5~----5~--3~--5~----|
- -1~--3~--3~----5~--3~--3~----1~--3~--3~----5~--3~--3~----|

  ---------------------------------------------------------|
  -6~--5~--------6~--5~--8~----10~-8~--8~----6~--5~--------|
  ---------7~----------------------------------------7~----|
  ---------------------------------------------------------|
  ---------------------------------------------------------|
  ---------------------------------------------------------|

[Solo] - [02:59] - [03:20]
- -------5-------5---------------5-------5---------------5-------5-------|
- -6-5h6---6-5-8-----------6-5h6---6-5-8-----------6-5h6---6-5-8---------|
- -----------------4-7~--------------------4-7~--------------------4-7~--|
- -----------------------------------------------------------------------|
- -----------------------------------------------------------------------|
- -----------------------------------------------------------------------|

  -5~-5br-3~-3br-----|
  ---------------3~--|
  -------------------|
  -------------------|
  -------------------|
  -------------------|

[Verse 3] - [03:20] - [03:39]
- -1-1-1-1-1-x1~-1-1-1-1-1-1-1-x1~-1-1-1-1-1--1-1-1--1-1-1-1-1-x1~-1-1-|
- -3-3-3-3-3-x3~-3-3-3-3-3-3-3-x3~-3-3-3-3-3--3-3-3--3-3-3-3-3-x3~-3-3-|
- ---------------------------------------------------------------------|
- ---------------------------------------------------------------------|
- ---------------------------------------------------------------------|
- ---------------------------------------------------------------------|

  -1-1-1-x1~-1-|
  -3-3-3-x3~-3-|
  -------------|
  -------------|
  -------------|
  -------------|

[Bridge] - [03:39] - [03:58]
- -1-1-1-1-3-0-0-0--1-1-1-1-3-3-3-3--1-1-1-1-3-0-0-0--1-1-1-1----------|
- -3-3-1-1-1-1-1-1--3-3-1-1-1-1-1-1--3-3-1-1-1-1-1-1--3-3-1-1----------|
- ---------------------------------------------------------------------|
- ------------------------------------------------------------55555555-|
- ------------------------------------------------------------33333333-|
- ---------------------------------------------------------------------|
PM                                                            ........

  ----------|
  ----------|
  ----------|
  -55555555-
  -33333333-
  ----------
PM ..

[Chorus 3] - [03:58] - [04:22]
- ------------------------------------------------------------------------|
- ------------------------------------------------------------------------|
- ------------------------------------------------------------------------|
- -33333333-33333333-55555555-55577755-33333333-33333333-5555555555555555-|
- -11111111-33333333-33333333-33355533-11111111-33333333-3333333333333333-|
- ----------11111111----------------------------11111111------------------|

  ----------------------------------------------------------|
  ----------------------------------------------------------|
  ----------------------------------------------------------|
  -33333333-33333333-55555555-55577755-33333333-33333333-9~-|
  -11111111-33333333-33333333-33355533-11111111-33333333-7~-|
  ----------11111111----------------------------11111111-0~-|

[Outro] - [04:22] - [04:35]
- ------|
- ------|
- -10~--|
- ------|
- ------|
- ------|


-------------------------------------------------------------------------


[Guitar 2] - [00:00] - [04:35]


[Intro] - [00:00] - [00:22]
- -----------------------------------------------------------------------|
- -----------------------------------------------------------------------|
- -10~-----9~--------7~----10~-----9~--------12~---10~-----9~--------7~--|
- -7~------5~--------9~----7~------5~--------9~----7~------5~--------9~--|
- -8~------7~--------5~----8~------7~--------10~---8~------7~--------5~--|
- -----------------------------------------------------------------------|

  --------------------------|
  --------------------------|
  -10~-----9~--------12~----|
  -7~------5~--------9~-----|
  -8~------7~--------10~----|
  --------------------------|

[Verse 1] - [00:22] - [00:42]
- ------------------------------------------------------------|
- ---------------------13p10----13p10----13p10----13p10-------|
- -------10-12br-10v--------10-------10-------10-------10-----|
- -10h12----------------------12-------12-------12-------12---|
- ------------------------------------------------------------|
- ------------------------------------------------------------|

  ---------------------12p11p10-------------|
  -----------------------------11-----------|
  -------10-12br-10v--------------12br-10v--|
  -10h12------------------------------------|
  ------------------------------------------|
  ------------------------------------------|

[Pre-Chorus 1] - [00:42] - [01:01---------------------------------------|
- -----5-6-5-5---5----5~-------------------------------5-6-10-6---5-----|
- -6-8----------8---6---6~----------------------3~--6-8---------8---6---|
- ----------------------------------2---------2~------------------------|
- --------------------------0-2-3-5---5-3-2-0~--------------------------|
- ----------------------------------------------------------------------|
- ----------------------------------------------------------------------|
PM                         .................

  -5~---------------------------|
  --6~-----------------------3~-|
  ---------------2---------2~---|
  -------0-2-3-5---5-3-2-0~-----|
  ------------------------------|
  ------------------------------|
PM       .................

[Chorus 1] - [01:01] - [01:20]
- ---------------------------------------------------------------------|
- ---------------------------------------------------------------------|
- -10-9----9-10-9----9-10-9----9-10-9----9-10-9---9-10-9---9-10-9----9-|
- ------12--------12--------10--------10--------9--------9--------10---|
- ---------------------------------------------------------------------|
- ---------------------------------------------------------------------|
PM ...................................................................

  --------------------------------------------------------------------|
  --------------------------------------------------------------------|
  -10-9---9-10-9----9-10-9----9-10-9----9-10-9---9-10-9---9-10-9----9-|
  ------9--------10--------10--------12--------12-------10-------10---|
  --------------------------------------------------------------------|
  --------------------------------------------------------------------|
PM ..................................................................

  ----------------------------------------------------------------------|
  ----------------------------------------------------------------------|
  -10-9----9-10-9----9-10-9----9-10-9----9-10-9----9-10-9----9-10-9---9-|
  ------10--------10--------12--------12--------10--------10--------9---|
  ----------------------------------------------------------------------|
  ----------------------------------------------------------------------|
PM ....................................................................

  ----------------------------------------------------------------------|
  ----------------------------------------------------------------------|
  -10-9---9-10-9----9-10-9----9-10-9----9-10-9----9-10-9----9-10-9----9-|
  ------9--------10--------10--------12--------12--------10--------10---|
  ----------------------------------------------------------------------|
  ----------------------------------------------------------------------|
PM ....................................................................

  ----------------------------|
  ----------------------------|
  -10-9----9-10-9----9-10--9~-|
  ------10--------10----------|
  ----------------------------|
  ----------------------------|
PM ......................

[Verse 2] - [01:20] - [01:40]
- ----------------------------------------------------------------------|
- --------------------------13p10----13p10----13p10----13p10------------|
- -------10-12br-10v--10\--------10-------10-------10-------10----10\---|
- -10h12--------------12\----------12-------12-------12-------12--12\---|
- ----------------------------------------------------------------------|
- ----------------------------------------------------------------------|

  ---------------------12h13p12-------------|
  -----------------------------10-----------|
  -------10-12br-10v--------------12br-10v--|
  -10h12------------------------------------|
  ------------------------------------------|
  ------------------------------------------|

[Pre-Chorus 2] - [01:40] - [01:59---------------------------------------|
- -----5-6-5-5---5----5~-------------------------------5-6-10-6---5-----|
- -6-8----------8---6---6~----------------------3~--6-8---------8---6---|
- ----------------------------------2---------2~------------------------|
- --------------------------0-2-3-5---5-3-2-0~--------------------------|
- ----------------------------------------------------------------------|
- ----------------------------------------------------------------------|
PM                         .................

  -5~---------------------------|
  --6~-----------------------3~-|
  ---------------2---------2~---|
  -------0-2-3-5---5-3-2-0~-----|
  ------------------------------|
  ------------------------------|
PM       .................

[Chorus 2] - [01:59] - [02:19]
- ---------------------------------------------------------------------|
- ---------------------------------------------------------------------|
- -10-9----9-10-9----9-10-9----9-10-9----9-10-9---9-10-9---9-10-9----9-|
- ------12--------12--------10--------10--------9--------9--------10---|
- ---------------------------------------------------------------------|
- ---------------------------------------------------------------------|
PM ...................................................................

  --------------------------------------------------------------------|
  --------------------------------------------------------------------|
  -10-9---9-10-9----9-10-9----9-10-9----9-10-9---9-10-9---9-10-9----9-|
  ------9--------10--------10--------12--------12-------10-------10---|
  --------------------------------------------------------------------|
  --------------------------------------------------------------------|
PM ..................................................................

  ----------------------------------------------------------------------|
  ----------------------------------------------------------------------|
  -10-9----9-10-9----9-10-9----9-10-9----9-10-9----9-10-9----9-10-9---9-|
  ------10--------10--------12--------12--------10--------10--------9---|
  ----------------------------------------------------------------------|
  ----------------------------------------------------------------------|
PM ....................................................................

  ----------------------------------------------------------------------|
  ----------------------------------------------------------------------|
  -10-9---9-10-9----9-10-9----9-10-9----9-10-9----9-10-9----9-10-9----9-|
  ------9--------10--------10--------12--------12--------10--------10---|
  ----------------------------------------------------------------------|
  ----------------------------------------------------------------------|
PM ....................................................................

  ----------------------------|
  ----------------------------|
  -10-9----9-10-9----9-10--9~-|
  ------10--------10----------|
  ----------------------------|
  ----------------------------|
PM ......................

[Interlude] - [02:19] - [02:59]
- -1~--3~--3~----5~------------5~--3~--3~----5~------------|
- -1~--3~--3~--------6~--8~----6~--3~--3~--------6~--8~----|
- -2~--5~--4~------------------7~--5~--4~------------------|
- -3~--5~--5~------------------7~--5~--5~------------------|
- -3~--3~--5~------------------5~--3~--5~------------------|
- -1~--3~--3~------------------5~--3~--3~------------------|

  ---------------------------------------------------------|
  -6~--5~--------6~--5~--8~----10~-8~--8~----6~--5~--------|
  ---------7~----------------------------------------7~----|
  ---------------------------------------------------------|
  ---------------------------------------------------------|
  ---------------------------------------------------------|

[Solo] - [02:59] - [03:20]
- ---------------------------------------------------------------|
- -3~---6-6b-6-5-5b-5-3~---6-8b-6-5-5b-5-3~---7-7b-7-5-5b-5------|
- ----------------------------------------------------------7~---|
- ---------------------------------------------------------------|
- ---------------------------------------------------------------|
- ---------------------------------------------------------------|

[Verse 3] - [3:20] - [3:29]
- -----5-6-5-5---5----5~-------------------------------5-6-10-6---5----|
- -6-8----------8---6---6~----------------------3~--6-8---------8---6--|
- ----------------------------------2---------2~-----------------------|
- --------------------------0-2-3-5---5-3-2-0~-------------------------|
- ---------------------------------------------------------------------|
- ---------------------------------------------------------------------|
PM                          .................

  -5~---------------------------|
  --6~-----------------------3~-|
  ---------------2---------2~---|
  -------0-2-3-5---5-3-2-0~-----|
  ------------------------------|
  ------------------------------|
PM       .................

[Bridge] - [03:29] - [03:58]
- ---------------------------------------------------------------------|
- ---------------------------------------------------------------------|
- -10-9----9-10-9----9-10-9----9-10-9----9-10-9---9-10-9---9-10-9----9-|
- ------12--------12--------10--------10--------9--------9--------10---|
- ---------------------------------------------------------------------|
- ---------------------------------------------------------------------|
PM ...................................................................

  --------------------------------------------------------------------|
  --------------------------------------------------------------------|
  -10-9---9-10-9----9-10-9----9-10-9----9-10-9---9-10-9---9-10-9----9-|
  ------9--------10--------10--------12--------12-------10-------10---|
  --------------------------------------------------------------------|
  --------------------------------------------------------------------|
PM ..................................................................

  ----------------------------------------------------------------------|
  ----------------------------------------------------------------------|
  -10-9----9-10-9----9-10-9----9-10-9----9-10-9----9-10-9----9-10-9---9-|
  ------10--------10--------12--------12--------10--------10--------9---|
  ----------------------------------------------------------------------|
  ----------------------------------------------------------------------|
PM ....................................................................

  ----------------------------------------------------------------------|
  ----------------------------------------------------------------------|
  -10-9---9-10-9----9-10-9----9-10-9----9-10-9----9-10-9----9-10-9----9-|
  ------9--------10--------10--------12--------12--------10--------10---|
  ----------------------------------------------------------------------|
  ----------------------------------------------------------------------|
PM ....................................................................

  ----------------------------|
  ----------------------------|
  -10-9----9-10-9----9-10--9~-|
  ------10--------10----------|
  ----------------------------|
  ----------------------------|
PM ......................

[Chorus 3] - [02:58] - [03:22]
- ---------------------------------------------------------------------|
- ---------------------------------------------------------------------|
- -10-9----9-10-9----9-10-9----9-10-9----9-10-9---9-10-9---9-10-9----9-|
- ------12--------12--------10--------10--------9--------9--------10---|
- ---------------------------------------------------------------------|
- ---------------------------------------------------------------------|

  --------------------------------------------------------------------|
  --------------------------------------------------------------------|
  -10-9---9-10-9----9-10-9----9-10-9----9-10-9---9-10-9---9-10-9----9-|
  ------9--------10--------10--------12--------12-------10-------10---|
  --------------------------------------------------------------------|
  --------------------------------------------------------------------|

  ----------------------------------------------------------------------|
  ----------------------------------------------------------------------|
  -10-9----9-10-9----9-10-9----9-10-9----9-10-9----9-10-9----9-10-9---9-|
  ------10--------10--------12--------12--------10--------10--------9---|
  ----------------------------------------------------------------------|
  ----------------------------------------------------------------------|

  ----------------------------------------------------------------------|
  ----------------------------------------------------------------------|
  -10-9---9-10-9----9-10-9----9-10-9----9-10-9----9-10-9----9-10-9----9-|
  ------9--------10--------10--------12--------12--------10--------10---|
  ----------------------------------------------------------------------|
  ----------------------------------------------------------------------|

  ----------------------------|
  ----------------------------|
  -10-9----9-10-9----9-10--9~-|
  ------10--------10----------|
  ----------------------------|
  ----------------------------|

[Outro] - [03:22] - [04:35]
- -------10~-|
- -----10~---|
- ----7~-----|
- ---7~------|
- --7~-------|
- -0~--------|

[Symbols Used]
h     Hammer On.
x     Dead Note.
~     Let Note Ring.
br    Bend And Release.
PM... Palm Mute Notes With Dots (.) Under Them.
v     Vibrato (Wiggle Your Finger Back And Forth To Slighty Bend Note).
p     Pull Off.
\     Slide Out Downwards.

Watch for the Guitar Pro, comin soon.





Comments


Popular Illscarlett tabs & chords
N.T.F Bass Tabs
One-A Bass Tabs
One-A Chords
Paradise Burning Chords
Sorry Chords
Nothing Special Tabs
Ntf 3 Tabs
One-A 1 Tabs
Freezing Ukulele
Paradise Burning Ukulele


Song lyrics



↑ Back to top | Tablatures and chords are parodies/interpretations of the original songs. You may use it for private study, scholarship, research or language learning purposes only
© 2014 AZChords.com Contact us | Privacy policy | DMCA | Add/correct tabs | Request tabs | Top 50 tabs