» » »

Illscarlett, Rally Bass tabs (ver.1)

Artists:  A B C D E F G H I J K L M N O P Q R S T U V W X Y Z # 

Rally Bass tabs (ver.1)

Illscarlett Tabs
 Rating:
4/5 (4 votes)
Rally lessons Tabs too difficult? Try these video lessons and learn fast
                This is my first tab and it's all done by ear so im sure its not 100% but its close 
to work with the song.

Standard Tuning EADG

Intro: Al Pacino talking

guitar + symbols
wait for 4 bars


Verse: Rally, you better come out tonight...

G|---------------------------------| x4 mix up ryhtm
D|---------------------------------|
A|-5--5--------5--5-5-5--8-3-4-----|
E|-------6--6----------------------|


Pre-Chorus: Oh my god, I think I should've run...

G|---------------------------------| x4 Play around with fills
D|-----3-5-7-5-3-5------7-----7--7-|
A|-5-7-------------5-5-5---5-5--5--|
E|---------------------------------|


Chorus: Making plans to make amends with all my enemies...

G|------------------------------------------| x4 mix up the rythm
D|-----7------------------------------------|
A|-5--5--5----------------------------------|
E|---------6--6-6-6--8--8-8-10-8-11-10-8-10-|


Verse: Rally, some of you come out tonight...

G|---------------------------------| x4 mix up ryhtm
D|---------------------------------|
A|-5--5--------5--5-5-5--8-3-4-----|
E|-------6--6----------------------|


Pre-Chorus: And I said, oh sh*t what the f**k is going on...

G|---------------------------------| x4 Play around with fills
D|-----3-5-7-5-3-5------7-----7--7-|
A|-5-7-------------5-5-5---5-5--5--|
E|---------------------------------|

Chorus: Making plans to make amends with all my enemies...

G|------------------------------------------| x4 mix up the rythm
D|-----7------------------------------------|
A|-5--5--5----------------------------------|
E|---------6--6-6-6--8--8-8-10-8-11-10-8-10-|


Bridge: can you feel, theres music everywhere...

G|--------------------------------------------------| x8
D|--7----7------------------------------------------|
A|-5--5-5-5---10---10--10-10-12-10-13--12--10-10-12-|
E|-----------8--8-8--8------------------------------|


Bridge Part 2:

guitar + drums

some rasta guy talking


Ending Fill:

G|-------------12-| x1  h = hammer on
D|-------12h14----|
A|-12h14----------|
E|----------------|

Pre-Chorus: Oh sh*t what the f**k is going on...

G|---------------------------------| x4 Play around with fills
D|-----3-5-7-5-3-5------7-----7--7-|
A|-5-7-------------5-5-5---5-5--5--|
E|---------------------------------|

Chorus: Making plans to make amends with all my enemies...

G|------------------------------------------| x4 mix up the rythm
D|-----7------------------------------------|
A|-5--5--5----------------------------------|
E|---------6--6-6-6--8--8-8-10-8-11-10-8-10-|


Chorus Continued:

G|----------------------------------| x4 you can add some fills
D|----------------------------------|
A|-5-5-5-5--------------------------|
E|---------6-6-6-6--8-8-8-8-8-8-8-8-|

and thats it

rates/comments would be appreciated
            
Submit corrections

comments powered by Disqus
↑ Back to top | Illscarlett Bass for Rally. Lyrics for acoustic guitar and electric guitar. Tablatures and chords are parodies/interpretations of the original songs. You may use it for private study, scholarship, research or language learning purposes only