» » »

Te Amo I Hate You Tabs (ver.2)

Artists:  A B C D E F G H I J K L M N O P Q R S T U V W X Y Z # 

Te Amo I Hate You Tabs (ver.2)

Ill Nino
Rating:
0/5 (0 votes)

Hard to play? Try these video lessons and learn fast.
                ^ = slight bend


Intro:

D|-------------------------------------------------------------------|
A|-------------------------------------------------------------------|
F|-------------------------------------------------------------------|
C|-----9^------------------------------------------------------------|
G|-------------------------------------------------------------------|
C|-------------------------------------------------------------------|

D|-------------------------------------------------------------------|
A|-------------------------------------------------------------------|
F|-------------------------------------------------------------------|
C|--0~----0-0-0~---0-0-0-0~--0-0-0~---1-1-1-1-1-1-1-1----------------|
G|--0~----0-0-0~---0-0-0-0~--0-0-0~---1-1-1-1-1-1-1-1----------------|
C|--0~----0-0-0~---0-0-0-0~--0-0-0~---1-1-1-1-1-1-1-1----------------|

D|-------------------------------------------------------------------|
A|-------------------------------------------------------------------|
F|-------------------------------------------------------------------|
C|--0-1-0-1-0--0-0-1-0-1-0--0-1-0-1-0--0-0-1-0-1-0-------------------| x 2
G|--0-1-0-1-0--0-0-1-0-1-0--0-1-0-1-0--0-0-1-0-1-0-------------------|
C|--0-1-0-1-0--0-0-1-0-1-0--0-1-0-1-0--0-0-1-0-1-0-------------------|

verse:

D|------------------------------------------------------------------|
A|------------------------------------------------------------------|
F|------------------------------------------------------------------|
C|--0~---0-0-0-0~-0-0-0-0~--0-0-0~---1-1-1--------------------------|
G|--0~---0-0-0-0~-0-0-0-0~--0-0-0~---1-1-1--------------------------|
C|--0~---0-0-0-0~-0-0-0-0~--0-0-0~---1-1-1--------------------------|
         . . .    . . .     . .  

D|-------------------------------------------------------------------|
A|-------------------------------------------------------------------|
F|-------------------------------------------------------------------|
C|--0-1-0-1-0--0-0-1-0-1-0--0-1-0-1-0--0-0-1-0-1-0-------------------| x 2
G|--0-1-0-1-0--0-0-1-0-1-0--0-1-0-1-0--0-0-1-0-1-0-------------------|
C|--0-1-0-1-0--0-0-1-0-1-0--0-1-0-1-0--0-0-1-0-1-0-------------------|

D|-------------------------------------------------------------------|
A|-------------------------------------------------------------------|
F|---8-8-8-10-10-10-10-----------------------------------------------|
C|---8-8-8-10-10-10-10-----------------------------------------------|
G|---6-6-6-8--8--8--8------------------------------------------------|
C|-------------------------------------------------------------------|
 
chorus:

D|------------------------------------------------------------------|
A|------------------------------------------------------------------|
F|------------------------------------------------------------------| x 8
C|--0-0-1-1--1-3-3-3-3-5-5-5-5--------------------------------------|
G|--0-0-1-1--1-3-3-3-3-5-5-5-5--------------------------------------|
C|--0-0-1-1--1-3-3-3-3-5-5-5-5--------------------------------------|

verse:

D|------------------------------------------------------------------|
A|------------------------------------------------------------------|
F|------------------------------------------------------------------|
C|--0~---0-0-0-0~-0-0-0-0~--0-0-0~---1-1-1--------------------------|
G|--0~---0-0-0-0~-0-0-0-0~--0-0-0~---1-1-1--------------------------|
C|--0~---0-0-0-0~-0-0-0-0~--0-0-0~---1-1-1--------------------------|
         . . .    . . .     . .  

D|-------------------------------------------------------------------|
A|-------------------------------------------------------------------|
F|-------------------------------------------------------------------|
C|--0-1-0-1-0--0-0-1-0-1-0--0-1-0-1-0--0-0-1-0-1-0-------------------| x 2
G|--0-1-0-1-0--0-0-1-0-1-0--0-1-0-1-0--0-0-1-0-1-0-------------------|
C|--0-1-0-1-0--0-0-1-0-1-0--0-1-0-1-0--0-0-1-0-1-0-------------------|

D|-------------------------------------------------------------------|
A|-------------------------------------------------------------------|
F|---8-8-8-10-10-10-10-----------------------------------------------|
C|---8-8-8-10-10-10-10-----------------------------------------------|
G|---6-6-6-8--8--8--8------------------------------------------------|
C|-------------------------------------------------------------------|

chorus:

D|------------------------------------------------------------------|
A|------------------------------------------------------------------|
F|------------------------------------------------------------------| x 8
C|--0-0-1-1--1-3-3-3-3-5-5-5-5--------------------------------------|
G|--0-0-1-1--1-3-3-3-3-5-5-5-5--------------------------------------|
C|--0-0-1-1--1-3-3-3-3-5-5-5-5--------------------------------------|

solo bit :

D|------------|---------------------------------------------------|
A|------------|---------------------------------------------------|
F|------------|---------------------------------------------------|
C|---0~--0~---|--1-1-0---0-1-0-1--0-1-0-1--1-1-1------------------| x 2
G|---0~--0~---|---------------------------------------------------|
C|---0~--0~---|---------------------------------------------------|

verse:

D|-------------------------------------------------------------------|
A|-------------------------------------------------------------------|
F|-------------------------------------------------------------------|
C|--0-1-0-1-0--0-0-1-0-1-0--0-1-0-1-0--0-0-1-0-1-0-------------------| x 2
G|--0-1-0-1-0--0-0-1-0-1-0--0-1-0-1-0--0-0-1-0-1-0-------------------|
C|--0-1-0-1-0--0-0-1-0-1-0--0-1-0-1-0--0-0-1-0-1-0-------------------|

D|-------------------------------------------------------------------|
A|-------------------------------------------------------------------|
F|---8-8-8-10-10-10-10-----------------------------------------------|
C|---8-8-8-10-10-10-10-----------------------------------------------|
G|---6-6-6-8--8--8--8------------------------------------------------|
C|-------------------------------------------------------------------|

D|-------------------------------------------------------------------|
A|-------------------------------------------------------------------|
F|-------------------------------------------------------------------|
C|--0-1-0-1-0--0-0-1-0-1-0--0-1-0-1-0--0-0-1-0-1-0-------------------| x 2
G|--0-1-0-1-0--0-0-1-0-1-0--0-1-0-1-0--0-0-1-0-1-0-------------------|
C|--0-1-0-1-0--0-0-1-0-1-0--0-1-0-1-0--0-0-1-0-1-0-------------------|

Outro:

D|-------------------------------------------------------------------|
A|-------------------------------------------------------------------|
F|-------------------------------------------------------------------| x 13
C|-0-0-0-0-1-0--0-0-1-0----------------------------------------------|
G|-0-0-0-0-1-0--0-0-1-0----------------------------------------------|
C|-0-0-0-0-1-0--0-0-1-0----------------------------------------------|
   . . . . . .  . . . .

there you go! please rate!
            
Hard to play? Try these video lessons and learn fast. | Correct




comments powered by Disqus
↑ Back to top | Tablatures and chords are parodies/interpretations of the original songs. You may use it for private study, scholarship, research or language learning purposes only