>
 >
My Pleasant Torture

My Pleasant Torture Guitar Tabs

Ill Nino - My Pleasant Torture chords, tabs, tablatures, lyrics

Guitar lessons | Add/correct | Request | Top 50 tabs Artists:  A B C D E F G H I J K L M N O P Q R S T U V W X Y Z 0-9

My Pleasant Torture Guitar Tabs – Ill Nino

CD, Sheet music, Poster

Do you like My Pleasant Torture? Share with your friends now
Tabs
Ill Nino: My Pleasant Torture




Tuning: Drop C (C,G,C,F,A,D)

Riff 1
Guitar 1 (Flamenco Guitar)
D|------------------------------------------------|
A|------------------------------------------------|
F|----7-9-10----10h12-10-9-10----10h12-10-9-7-7/9-|
C|-/7---------------------------------------------|
G|------------------------------------------------|
C|------------------------------------------------|

D|----------------------------|
A|-10-11-13-10-11----10-------|
F|----------------12----10-12-|
C|----------------------------|
G|----------------------------|
C|----------------------------|

Riff 1
Guitar 2 (Flamenco Guitar)
D|----------------------------------------------|
A|----------------------------------------------|
F|-10--9--10h12-10---------10--9--10h12-10------|
C|-7---7-----------10-8-7--7---7-----------10-8-|
G|----------------------------------------------|
C|----------------------------------------------|

D|---------------------------------------------------------------|
A|---------------------------------------------------------------|
F|---------------------------------------------------------------|
C|-----8-----10-----------------------8-----10-------------------|
G|---8---8------8---8h10-8----------8---8------8---8h10-8--------|
C|-8-------8------8--------8h10-8-8-------8------8--------8h10-8-|

Riff 2
Guitar 1
D|----------------------------------------------------------|
A|----------------------------------------------------------|
F|----------------------------------------------------------|
C|-0--0--0-0----0-0-0--0--0-0----0--0--0-0----0-0-0--0--0-0-|
G|-0--0--0-0----0-0-0--0--0-0----0--0--0-0----0-0-0--0--0-0-|
C|-0--0--0-0----0-0-0--0--0-0----0--0--0-0----0-0-0--0--0-0-|
   *  *  * *    * * *  *  * *    *  *  * *    * * *  *  * *
D|----------------------------------------------------------|
A|----------------------------------------------------------|
F|----------------------------------------------------------|
C|-8--8--8-8----8-8-8--8--8-8----8--8--8-8----8-8-8--8--8-8-|
G|-8--8--8-8----8-8-8--8--8-8----8--8--8-8----8-8-8--8--8-8-|
C|-8--8--8-8----8-8-8--8--8-8----8--8--8-8----8-8-8--8--8-8-|
   *  *  * *    * * *  *  * *    *  *  * *    * * *  *  * *

Riff 2
Guitar 2
D|---------------------------------|
A|---------------------------------|
F|-10--9----9--10---10--9----9--10-|
C|-7---7----7--7----7---7----7--7--|
G|---------------------------------|
C|---------------------------------|

Play Riff 1   "Why..."
Play Riff 2   "Now turn to me..."

Riff 3   "Did you ever ask the sky..."
D|------------------------------------------------|
A|------------------------------------------------|
F|-7-7/14-14--------------------------------------|
C|-x-x-x--x---8-8-8-8-8-8-8-8-5-5-5-5-5-7-7-7-7-7-|
G|-5-5/12-12--8-8-8-8-8-8-8-8-5-5-5-5-5-7-7-7-7-7-|
C|------------8-8-8-8-8-8-8-8-5-5-5-5-5-7-7-7-7-7-|

Play Riff 1   "How come we..."
Play Riff 2   "Now turn to me..."
Play Riff 3   "Did you ever ask the sky..."

Riff 4 (Solo)
Guitar 1 (Flamenco Guitar )
D|---------------------------------------------------------|
A|---------------------------------------------------------|
F|-------------7-9-10----10h12-9-10-9----10h12-10-9-10-9-7-|
C|-0--------/7---------------------------------------------|
G|-0-------------------------------------------------------|
C|-0-------------------------------------------------------|

D|------------------10-12-13----13/15-12-13-12-|
A|---------------10----------------------------|
F|-7-5-7-9/10----------------------------------|
C|---------------------------------------------|
G|---------------------------------------------|
C|---------------------------------------------|

D|-13/15-13-12-10-12-13-10-10b-10b-10b-------------|
A|-------------------------13b-13b-13b----10-13-10-|
F|-------------------------------------------------|
C|-------------------------------------------------|
G|-------------------------------------------------|
C|-------------------------------------------------|

Play Riff 3   "Did you ever ask the sky..."


Notation:

10^        = bend a quarter step.
10b11      = bend a half step.
10b12      = bend a full step.
10b12r10   = bend and release.
[10]12     = pre-bend.
[10]12r10  = pre-bend and release.
{14}       = pick the 14th fret while holding the most 
             previous bend.
       = touch the string above the 17th fret while 
             previous note(s) is(are) still ringing.

10b13*     = tremolo bar bend, from the 10th fret to the 13th fret.
7d4*       = tremolo bar dive, from the 7th fret to the 4th fret. 
12~*       = tremolo bar vibrato.

x   =  mute with fret-hand
*   =  palm mute
X\\ =  pick slide
h   =  hammer-on
p   =  pull-off
~   =  vibrato
t   =  finger tap
/   =  slide up
\   =  slide down
h.  =  natural harmonics
a   =  artificial harmonics
(9) =  ghost note
tm  =  trem picking
tr  =  trill





Comments


Popular Ill Nino tabs & chords
If You Still Hate Me Bass Tabs
With You Chords
Barely Breathing Tabs
De La Vida Tabs
God Save Us 1 Tabs
Have You Ever Felt? Tabs
If You Still Hate Me 3 Tabs
Nothings Clear 2 Tabs
Revolucion / Revolucion Bits And Peices Tabs
Turns To Gray Tabs


Song lyrics



↑ Back to top | Tablatures and chords are parodies/interpretations of the original songs. You may use it for private study, scholarship, research or language learning purposes only
© 2014 AZChords.com Contact us | Privacy policy | DMCA | Add/correct tabs | Request tabs | Top 50 tabs