>
 >
Alibi Of Tyrants"

Alibi Of Tyrants" Guitar Tabs

Ill Nino - Alibi Of Tyrants" chords, tabs, tablatures, lyrics

Guitar lessons | Add/correct | Request | Top 50 tabs Artists:  A B C D E F G H I J K L M N O P Q R S T U V W X Y Z 0-9

Alibi Of Tyrants" Guitar Tabs – Ill Nino

CD, Sheet music, Poster

Do you like Alibi Of Tyrants"? Share with your friends now
Bass TabsTabs
Ill Nino: Alibi Of Tyrants




Tuning: Drop C (C,G,C,F,A,D)

Riff 1 (Delay)
D|----------------------------------|
A|----------------------------------|
F|----------------------------------|
C|-x-x-0--0-0--(x)-(x)-(0)--(0)-(0)-|
G|-x-x-0--0-0--(x)-(x)-(0)--(0)-(0)-|
C|-x-x-0--0-0--(x)-(x)-(0)--(0)-(0)-|
       *  * *           *    *   *

Riff 2
D|--------------------------------------------------------|
A|--------------------------------------------------------|
F|--------------------------------------------------------|
C|-0----3----5----8-8-8-8-8-8--0----3----5----8-8-8-8-8-8-|
G|-0----3----5----8-8-8-8-8-8--0----3----5----8-8-8-8-8-8-|
C|-0----3----5----8-8-8-8-8-8--0----3----5----8-8-8-8-8-8-|
                  * *   * *                   * *   * *

Riff 3
Guitar 1
D|----------------------------------------------------------|
A|----------------------------------------------------------|
F|-------8-8-----------8-8\-----------8-8-------------7\5/7-|
C|-------6-6-----------6-6\-----------6-6-------------5\3/5-|
G|-0-0-0-6-6-0-0-0-0-0-6-6\-0-0-0-0-0-6-6-0-0-0-0-0-0-5\3/5-|
C|-0-0-0-----0-0-0-0-0------0-0-0-0-0-----0-0-0-0-0-0-------|
   * * *     * * * * *      * * * * *     * * * * * *

Riff 3
Guitar 2
D|----------------------------------------------------------|
A|----------------------------------------------------------|
F|-------8-8-----------8-8\-----------8-8-------------7\5/7-|
C|-------x-x-----------x-x------------x-x-------------x-x-x-|
G|-0-0-0-6-6-0-0-0-0-0-6-6\-0-0-0-0-0-6-6-0-0-0-0-0-0-5\3/5-|
C|-0-0-0-----0-0-0-0-0------0-0-0-0-0-----0-0-0-0-0-0-------|
   * * *     * * * * *      * * * * *     * * * * * *

Riff 4
D|-------------------------------------------------------|
A|-------------------------------------------------------|
F|-------------------------------------------------------|
C|-0-0-0-0-0-0-0-3-3-3-3-3-3-3-5-5-5-5-5-5-5-8-8-8-8-8-8-|
G|-0-0-0-0-0-0-0-3-3-3-3-3-3-3-5-5-5-5-5-5-5-8-8-8-8-8-8-|
C|-0-0-0-0-0-0-0-3-3-3-3-3-3-3-5-5-5-5-5-5-5-8-8-8-8-8-8-|
     * * * * * *   * * * * * *   * * * * * * * *   * *

Play Riff 2   "...again..."
Play Riff 3
Play Riff 4

Riff 5
D|------------------------|
A|------------------------|
F|------------------------|
C|-0--------8--0--------8-|
G|-0--------8--0--------8-|
C|-0--------8--0--------8-|

Riff 6
D|-----------------------------------|
A|-----------------------------------|
F|-----------------------------------|
C|-777771010101010-------------------|
G|-----------------666-----555-------|
C|---------------------000-----33333-|
   ****** * * * *  *** *** *** *****

D|-------------------------------|
A|-------------------------------|
F|-------------------------------|
C|-8888877777--------------------|
G|------------555-----666--------|
C|----------------000-----663355-|
   ********** *** *** *** ******

D|---------------------------|
A|---------------------------|
F|---------------------------|
C|-0-------------------------|
G|-0-------------------------|
C|-0-------------------------|

Play Riff 4
Play Riff 3


Notation:

10^        = bend a quarter step.
10b11      = bend a half step.
10b12      = bend a full step.
10b12r10   = bend and release.
[10]12     = pre-bend.
[10]12r10  = pre-bend and release.
{14}       = pick the 14th fret while holding the most 
             previous bend.
<17>       = touch the string above the 17th fret while 
             previous note(s) is(are) still ringing.

10b13*     = tremolo bar bend, from the 10th fret to the 13th fret.
7d4*       = tremolo bar dive, from the 7th fret to the 4th fret. 
12~*       = tremolo bar vibrato.

x   =  mute with fret-hand
*   =  palm mute
X\\ =  pick slide
h   =  hammer-on
p   =  pull-off
~   =  vibrato
t   =  finger tap
/   =  slide up
\   =  slide down
h.  =  natural harmonics
a   =  artificial harmonics
(9) =  ghost note
tm  =  trem picking
tr  =  trill





Comments


Popular Ill Nino tabs & chords
Liar 2 Bass Tabs
Unreal Five String Bass Tabs
Liar Chords
All That I Ask For Tabs
If You Still Hate Me 3 Tabs
Nothings Clear 2 Tabs
This Is War Tabs
Turns To Gray 1 Tabs
When It Cuts 1 Tabs
With You Tabs


Song lyrics



↑ Back to top | Tablatures and chords are parodies/interpretations of the original songs. You may use it for private study, scholarship, research or language learning purposes only
© 2014 AZChords.com Contact us | Privacy policy | DMCA | Add/correct tabs | Request tabs | Top 50 tabs