» » »

Ill Nino, Alibi Of Tyrants" Bass tabs (ver.1)

Artists:  A B C D E F G H I J K L M N O P Q R S T U V W X Y Z # 

Alibi Of Tyrants" Bass tabs (ver.1)

Ill Nino Tabs
 Rating:
4/5 (4 votes)
Alibi Of Tyrants Tabs too difficult? Try these video lessons and learn fast
1
                INtro:
F:---------|
C:---------|
G:---------|
C:--0--00--| (this is mainly a guitar part but you can play it if you want)

Intro 2:
F:-------------------------------|
C:---------------------88----88--|
G:-------------------------------|
C:-0~---3~---5~----8-8---8-8-----|(play as necesary)


F:------------------------|
C:------------------------|
G:------------------------|
C:---0--00----------------| then

F:-----------------------------------------------| HOW EVER MANY TIMES
C:-----------------------------------------------|
G:----------6~---------6~---------6~------6/3/6--|
C:--0-0-0-0----0-0-0-0----0-0-0-0----0-0-0-------|

Chorus
F:---------------------------------------------------------------|
C:------------------------------------------------------8----8---|
G:---------------------------------------------------------------|
C:-0-0-0-0-0-0-0-3-3-3-3-3-3-3-5-5-5-5-5-5-5-8-8-8-8-8-8--8-8----|

Bridge
is to come soon
            
Submit corrections

comments powered by Disqus
↑ Back to top | Ill Nino Bass for Alibi Of Tyrants". Lyrics for acoustic guitar and electric guitar. 1 Tablatures and chords are parodies/interpretations of the original songs. You may use it for private study, scholarship, research or language learning purposes only