» » »

Iliketrains, A Rook House For Bobby Tabs (ver.1)

Artists:  A B C D E F G H I J K L M N O P Q R S T U V W X Y Z # 

A Rook House For Bobby Tabs (ver.1)

Iliketrains Tabs
Rating:
0/5 (0 votes)
A Rook House For Bobby lessons Tabs too difficult? Try these video lessons and learn fast
                -------------------------------------------------------------------------------
-------------------------------------------------------------------------------

Tuning: Standard

For the real iLT sound, add loads of reverb and delay

*Where notes are mentioned repeadetly, you can probably do just one (or a few note(s) if 
you have delay/reverb. If you don't, just play as much as seems right*



                                 2x
e|---------------------------------------------------------------------------|
B|---------------------------------------------------------------------------|
G|--6-------8--9----------------6----------4---------------------------------|
D|----6--7--------9----7--6---------7---4------9-----------------------------|
A|---------------------------------------------------------------------------|
E|---------------------------------------------------------------------------|

e|---------------------------------------------------------------------------|
B|---------------------------------------------------------------------------|
G|--6--------8--9------------6-------8---9-----------------------------------|
D|-----6--7-------9---7--6-------7---------9---------------------------------|
A|---------------------------------------------------------------------------|
E|---------------------------------------------------------------------------|

e|---------------------------------------------------------------------------|
B|---------------------------------------------------------------------------|
G|--6-------8--9----------------6--------------------------------------------|
D|----6--7--------9----7--6---------7---4------------------------------------|
A|---------------------------------------------------------------------------|
E|---------------------------------------------------------------------------|

      C#m                                  A
e|---4-------------14-----------------------5----------------14--------------|
B|---5------------------14-----12-----------5--------------------14---12-----|
G|---6--------------------------------------6--------------------------------|
D|---6--------------------------------------7--------------------------------|
A|---4--------------------------------------7--------------------------------|
E|------------------------------------------5--------------------------------|

e|---------------------------------------------------------------------------|
B|--------5--5---7-7-7-7-7-------5--5--------5--5--7-7-7-7-7--4-4-5-5-4-4-5-5|
G|---6------------------------6-----------6----------------------------------|
D|---------------------------------------------------------------------------|
A|---------------------------------------------------------------------------|
E|---------------------------------------------------------------------------|

e|---------------------------------------------------------------------------|
B|-7-7-7-7-7-7-7-7-7-7-7-----------------------------------------------------|
G|-6-6-6-6-6-6-6-6-6-6-6-----------------------------------------------------|
D|---------------------------------------------------------------------------|
A|---------------------------------------------------------------------------|
E|---------------------------------------------------------------------------|

e|---------------------------------------------------------------------------|
B|---------------------------------------------------------------------------|
G|-6-6-6-6-6-6-8-8-8-9-9-9-9-9-9-9-9-----------------------------------------|
D|-------------------------------------9-9-9-9-9-7-7-7-7-7-7-6-6-6-6-6-6-----|
A|---------------------------------------------------------------------------|
E|---------------------------------------------------------------------------|

e|---------------------------------------------------------------------------|
B|---------------------------------------------------------------------------|
G|-6-6-6-6-6------------------------8-8-8-8-8-8-8-9-9-9-9-9-9-9-9------------|
D|------------7-7-7-7-7-8-8-8-8-8-8------------------------------------------|
A|---------------------------------------------------------------------------|
E|---------------------------------------------------------------------------|

After that it's pretty much just G-string, 6th fret, repeat it till it fades out.
            
Submit corrections

comments powered by Disqus
↑ Back to top | Iliketrains Tabs for A Rook House For Bobby. Lyrics for acoustic guitar and electric guitar. Tablatures and chords are parodies/interpretations of the original songs. You may use it for private study, scholarship, research or language learning purposes only