>
 >
Your Shirt Would Look Better With A Columbian Neck-Tie

Your Shirt Would Look Better With A Columbian Neck-Tie Guitar Tabs

I Killed The Prom Queen - Your Shirt Would Look Better With A Columbian Neck-Tie chords, tabs, tablatures, lyrics

Guitar lessons | Add/correct | Request | Top 50 tabs Artists:  A B C D E F G H I J K L M N O P Q R S T U V W X Y Z 0-9

Your Shirt Would Look Better With A Columbian Neck-Tie Guitar Tabs – I Killed The Prom Queen

CD, Sheet music, Poster

Do you like Your Shirt Would Look Better With A Columbian Neck-Tie? Share with your friends now
Bass TabsTabsTabs v2Tabs v3
Your Shirt Would Look Better With A Columbian Necktie

I Killed The Prom Queen

Duration Legend
---------------
W - whole
H - half
Q - quarter
E - 8th
S - 16th
T - 32nd
X - 64th
. - note dotted
|-n-|  - n-tuplets


Tablature Legend
----------------
L - tied note
x - dead note
g - grace note
(n) - ghost note
> - accentuded note
NH - natural harmonic
AH - artificial harmonic
TH - tapped harmonic
SH - semi harmonic
PH - pitch harmonic
h - hammer on
p - pull off
b - bend
br - bendRelease
pb - preBend
pbr - preBendRelease
brb - bendReleaseBend
\n/ - tremolo bar dip
\n - tremolo bar dive
-/n - tremolo bar Release up
/n\ - tremolo bar inverted dip
/n - tremolo bar return
-\n - tremolo bar Release down
S - shift slide
s - legato slide
/ -  slide into from below or out of upwards
\ -  slide into from above or out of downwards
~ - vibrato
W - wide vibrato
tr - trill
TP - tremolo picking
T - tapping
S - slap
P - pop
< - fade in
^ - brush up
v - brush down

Guitar 1

C#||-------|-------|-------|----------|
G#||-------|-------|-------|----------|
E  ||-------|-------|-------|---------|
B ||-------|-------|-------|----------|
F#||-------|-------|-------|----------|
B ||-------|-------|-------|----------|


Intro

  PM PM     PM PM     PM PM PM PM     PM PM
  S  S  S S S  S  S S S  S  S  S  S S S  S
--------------------------------------------|
--------------------------------------------|
--------------------------------------------|
--------------------------------------------|
--0--0------0--0------0--0--0--0------0--0--|
--0--0------0--0------0--0--0--0------0--0--|


  PM PM     PM PM     PM PM     PM PM
  S  S  S S S  S  S S S  S  S S S  S  S S
------------------------------------------|
------------------------------------------|
------------------------------------------|
------------------------------------------|
--0--0------0--0------0--0------0--0------|
--0--0------0--0------0--0------0--0------|


  PM PM     PM PM     PM PM PM PM     PM PM
  S  S  S S S  S  S S S  S  S  S  S S S  S
--------------------------------------------|
--------------------------------------------|
--------------------------------------------|
--------------------------------------------|
--0--0------0--0------0--0--0--0------0--0--|
--0--0------0--0------0--0--0--0------0--0--|


  PM PM     PM PM     PM PM     PM PM
  S  S  S S S  S  S S S  S  S S S  S  S S
------------------------------------------|
------------------------------------------|
------------------------------------------|
------------------------------------------|
--0--0------0--0------0--0------0--0------|
--0--0------0--0------0--0------0--0------|


  PM PM     PM PM     PM PM PM PM     PM PM
  S  S  S S S  S  S S S  S  S  S  S S S  S
--------------------------------------------|
--------------------------------------------|
--------------------------------------------|
--------------------------------------------|
--0--0------0--0------0--0--0--0------0--0--|
--0--0------0--0------0--0--0--0------0--0--|


  PM PM     PM PM     PM PM     PM PM
  S  S  S S S  S  S S S  S  S S S  S  S S
------------------------------------------|
------------------------------------------|
------------------------------------------|
------------------------------------------|
--0--0------0--0------0--0------0--0------|
--0--0------0--0------0--0------0--0------|


  PM PM     PM PM     PM PM PM PM     PM PM
  S  S  S S S  S  S S S  S  S  S  S S S  S
--------------------------------------------|
--------------------------------------------|
--------------------------------------------|
--------------------------------------------|
--0--0------0--0------0--0--0--0------0--0--|
--0--0------0--0------0--0--0--0------0--0--|


  PM PM     PM PM     PM PM     PM PM
  S  S  S S S  S  S S S  S  S S S  S  S S
------------------------------------------|
------------------------------------------|
------------------------------------------|
------------------------------------------|
--0--0------0--0------0--0------0--0------|
--0--0------0--0------0--0------0--0------|


  PM PM     PM PM     PM PM PM PM     PM PM
  S  S  S S S  S  S S S  S  S  S  S S S  S
--------------------------------------------|
--------------------------------------------|
--------------------------------------------|
--------------------------------------------|
--0--0------0--0------0--0--0--0------0--0--|
--0--0------0--0------0--0--0--0------0--0--|


  PM PM     PM PM     PM PM     PM PM
  S  S  S S S  S  S S S  S  S S S  S  S S
------------------------------------------|
------------------------------------------|
------------------------------------------|
------------------------------------------|
--0--0------0--0------0--0------0--0------|
--0--0------0--0------0--0------0--0------|


  PM PM     PM PM     PM PM PM PM     PM PM
  S  S  S S S  S  S S S  S  S  S  S S S  S
--------------------------------------------|
--------------------------------------------|
--------------------------------------------|
--------------------------------------------|
--0--0------0--0------0--0--0--0------0--0--|
--0--0------0--0------0--0--0--0------0--0--|


  PM PM     PM PM     PM PM     PM PM           PM    PM    PM
  S  S  S S S  S  S S S  S  S S S  S  S S    E  E  E  E  E  E   E  E
------------------------------------------|---------------------------|
------------------------------------------|---------------------------|
------------------------------------------|---------------------------|
------------------------------------------|--0---------------------0--|
--0--0------0--0------0--0------0--0------|--0-----8-----7---------0--|
--0--0------0--0------0--0------0--0------|--0--0-----0-----0--10--0--|


     PM    PM    PM              PM    PM    PM
  E  E  E  E  E  E   E  E     E  E  E  E  E  E   E  E
---------------------------|---------------------------|
---------------------------|---------------------------|
---------------------------|---------------------------|
--L---------------------8--|--L---------------------7--|
--L-----8-----7-----10--8--|--L-----8-----7---------7--|
--L--0-----0-----0------8--|--L--8-----8-----8--10--7--|


                                     PM    PM    PM
  E   E  S  S  E  E  E   E  E     E  E  E  E  E  E   E  E
-------------------------------|---------------------------|
-------------------------------|---------------------------|
-------------------------------|---------------------------|
--L--10--8p-7---------------0--|--L---------------------0--|
--L-----------10--8--7------0--|--L-----8-----7---------0--|
--L---------------------10--0--|--L--0-----0-----0--10--0--|


     PM    PM    PM                  PM         PM
  E  E  E  E  E  E   E  E      E  E  E  Q    E  E  E
---------------------------|--------------------------|
---------------------------|--------------------------|
---------------------------|-----------------------7--|
--L------------------------|------5--5--8----7--5-----|
--L-----8-----7-----10--8--|---L----------------------|
--L--0-----0-----0---------|--------------------------|


                                  PM    PM    PM
  E  S  S E  E  E  E  E  E     E  E  E  E  E  E  E  E
----------------------------|--------------------------|
----------------------------|--------------------------|
--L--5h-7-5-----------------|--------------------------|
-------------8--7--5-----0--|--L-----7-----5--------0--|
----------------------8--0--|--L-----------------7--0--|
-------------------------0--|--L--0-----0-----0-----0--|


     PM    PM    PM             PM    PM    PM
  E  E  E  E  E  E  E  E     E  E  E  E  E  E  E  E
--------------------------|--------------------------|
--------------------------|--------------------------|
--------------------------|--------------------------|
--L-----7-----5-----8--8--|--L-----7-----5--------7--|
--L--------------------8--|--L-----------------7--7--|
--L--0-----0-----0-----8--|--L--8-----8-----8-----7--|


                                     PM    PM    PM
  E   E  S  S  E  E  E   E  E     E  E  E  E  E  E  E  E
-------------------------------|--------------------------|
-------------------------------|--------------------------|
-------------------------------|--------------------------|
--L--10--8p-7---------------0--|--L-----7-----5--------0--|
--L-----------10--8--7------0--|--L-----------------7--0--|
--L---------------------10--0--|--L--0-----0-----0-----0--|


     PM    PM    PM                 PM         PM
  E  E  E  E  E  E  E  E      E  E  E  Q    E  E  E
--------------------------|--------------------------|
--------------------------|--------------------------|
--------------------------|-----------------------7--|
--L-----7-----5-----8-----|------5--5--8----7--5-----|
--L--------------------8--|---L----------------------|
--L--0-----0-----0--------|--------------------------|


  E  S  S E  E  E  E  E  E     E  E  E  E  E  E  E  E
----------------------------|--------------------------|
----------------------------|--------------------------|
--L--5h-7-5--------------5--|--L--5--5--5--5--5--5--7--|
-------------8--7--5-----5--|--L--5--5--5--5--5--5--7--|
----------------------8--3--|--L--3--3--3--3--3--3--5--|
----------------------------|--------------------------|


                                    PM         PM
  E  E  E  E  E  E  E  E      E  E  E  Q    E  E  E
--------------------------|--------------------------|
--------------------------|--------------------------|
--L--7--7--7--7--7--7-----|-----------------------7--|
--L--7--7--7--7--7--7-----|------5--5--8----7--5-----|
--L--5--5--5--5--5--5--8--|---L----------------------|
--------------------------|--------------------------|


  E  S  S E  E  E  E  E  E     E  E  E  E  E  E  E  E     Q    Q    Q    E  E
----------------------------|--------------------------|-----------------------|
----------------------------|--------------------------|-----------------------|
--L--5h-7-5--------------5--|-----5--5--5--5--5--5--5--|--5--------------------|
-------------8--7--5-----5--|--L--5--5--5--5--5--5--5--|--5-----------------0--|
----------------------8--3--|--L--3--3--3--3--3--3--3--|--3-----------------0--|
----------------------------|--------------------------|--------------------0--|


  E  E  Q    E  E  E  E     E  E  Q    E  E  E  E     E  E  Q    E  E  E  E
-------------------------|-------------------------|-------------------------|
-------------------------|-------------------------|-------------------------|
----------------------5--|--L--5--5----5--5--5--3--|--L--3--3----3--3--3--3--|
--L--0--0----0--0--0--5--|--L--5--5----5--5--5--3--|--L--3--3----3--3--3--3--|
--L--0--0----0--0--0--3--|--L--3--3----3--3--3--1--|--L--1--1----1--1--1--1--|
--L--0--0----0--0--0-----|-------------------------|-------------------------|


  E  E  Q    E  E  E  E     E  E  Q    E  E  E  E     E  E  Q    E  E  E  E
-------------------------|-------------------------|-------------------------|
-------------------------|-------------------------|-------------------------|
--L--3--3----3--3--3-----|----------------------5--|--L--5--5----5--5--5--3--|
--L--3--3----3--3--3--0--|--L--0--0----0--0--0--5--|--L--5--5----5--5--5--3--|
--L--1--1----1--1--1--0--|--L--0--0----0--0--0--3--|--L--3--3----3--3--3--1--|
----------------------0--|--L--0--0----0--0--0-----|-------------------------|


  E  E  Q    E  E  E  E     E  E  Q    E  E  E   E      E  E  Q    E  E  E  E
-------------------------|---------------------------|-------------------------|
-------------------------|---------------------------|-------------------------|
--L--3--3----3--3--3--5--|--L--5--5----5--5--5-------|----------------------5--|
--L--3--3----3--3--3--5--|--L--5--5----5--5--5-------|-----0--0----0--0--0--5--|
--L--1--1----1--1--1--3--|--L--3--3----3--3--3--12\--|--L--0--0----0--0--0--3--|
-------------------------|---------------------------|-----0--0----0--0--0-----|


  E  E  Q    E  E  E  E     E  E  Q    E  E  E  E     E  E  Q    E  E  E  E
-------------------------|-------------------------|-------------------------|
-------------------------|-------------------------|-------------------------|
--L--5--5----5--5--5--3--|--L--3--3----3--3--3--3--|--L--3--3----3--3--3-----|
--L--5--5----5--5--5--3--|--L--3--3----3--3--3--3--|--L--3--3----3--3--3--0--|
--L--3--3----3--3--3--1--|--L--1--1----1--1--1--1--|--L--1--1----1--1--1--0--|
-------------------------|-------------------------|----------------------0--|


  E  E  Q    E  E  E  E     E  E  Q    E  E  E  E     E  E  Q    E  E  E  E
-------------------------|-------------------------|-------------------------|
-------------------------|-------------------------|-------------------------|
----------------------5--|--L--5--5----5--5--5--3--|--L--3--3----3--3--3--5--|
--L--0--0----0--0--0--5--|--L--5--5----5--5--5--3--|--L--3--3----3--3--3--5--|
--L--0--0----0--0--0--3--|--L--3--3----3--3--3--1--|--L--1--1----1--1--1--3--|
--L--0--0----0--0--0-----|-------------------------|-------------------------|


  E  E  Q    E  E  Q       W                   W
------------------------|-------------------|-------------------|
------------------------|-------------------|-------------------|
--L--5--5----5--5--5----|-------------------|-------------------|
--L--5--5----5--5--5----|--3----------------|--L----------------|
--L--3--3----3--3--3----|--5----------------|--L----------------|
------------------------|-------------------|-------------------|


  W                   W                   W                   W
-------------------|-------------------|-------------------|-------------------|
-------------------|-------------------|-------------------|-------------------|
-------------------|-------------------|-------------------|-------------------|
--L----------------|--L----------------|--3----------------|--L----------------|
--L----------------|--L----------------|--5----------------|--L----------------|
-------------------|-------------------|-------------------|-------------------|


  W                   W                   W
-------------------|-------------------|-------------------|
-------------------|-------------------|-------------------|
-------------------|-------------------|-------------------|
--5----------------|--3----------------|--3----------------|
--7----------------|--5----------------|--5----------------|
-------------------|-------------------|-------------------|


  H.           Q       Q    Q    Q    Q       Q    Q    Q    Q
--------------------|----------------------|----------------------|
--------------------|----------------------|----------------------|
--------------------|----------------------|----------------------|
--L------------7----|--7----5----5----3----|--3----2----2----3----|
--L------------8----|--8----7----7----5----|--5----3----3----5----|
--------------------|----------------------|----------------------|


  W                   W                   W                   W
-------------------|-------------------|-------------------|-------------------|
-------------------|-------------------|-------------------|-------------------|
-------------------|-------------------|-------------------|-------------------|
--3----------------|--L----------------|--5----------------|--3----------------|
--5----------------|--L----------------|--7----------------|--5----------------|
-------------------|-------------------|-------------------|-------------------|


  PM PM PM PM       PM PM      PM PM PM PM
  E  E  E  E  E  E  E  E     S S  E  E  E  E   E  E   E
--------------------------|------------------------------|
--------------------------|------------------------------|
--------------------------|------------------------------|
--------------------------|----------------7p--5---------|
--0--0--0--0--------0--0--|--0-0--0--0--0---------7h--8--|
--0--0--0--0--------0--0--|--0-0--0--0--0----------------|


  PM PM PM PM       PM PM    PM PM PM PM PM PM PM PM PM PM
  E  E  E  E  E  E  E  E     S  S  E  E  E  S  S  E  E  E
--------------------------|--------------------------------|
--------------------------|--------------------------------|
--------------------------|--------------------------------|
--------------------------|--------------------------------|
--0--0--0--0--------0--0--|--0--0--0--0--0--0--0--0--0--0--|
--0--0--0--0--------0--0--|--0--0--0--0--0--0--0--0--0--0--|


  PM PM PM PM       PM PM      PM PM PM PM
  E  E  E  E  E  E  E  E     S S  E  E  E  E   E  E   E
--------------------------|------------------------------|
--------------------------|------------------------------|
--------------------------|------------------------------|
--------------------------|----------------7p--5---------|
--0--0--0--0--------0--0--|--0-0--0--0--0---------8p--7--|
--0--0--0--0--------0--0--|--0-0--0--0--0----------------|


  E  E  E  E  E  E  E  E     E  E  E  E  E  E  E  E
--------------------------|--------------------------|
--------------------------|--------------------------|
--------------------------|--------------------------|
--3--3--3--3--3--3--3--3--|--5--5--5--5--7--7--7--7--|
--5--5--5--5--5--5--5--5--|--7--7--7--7--8--8--8--8--|
--------------------------|--------------------------|


  PM PM PM PM       PM PM      PM PM PM PM
  E  E  E  E  E  E  E  E     S S  E  E  E  E   E  E   E
--------------------------|------------------------------|
--------------------------|------------------------------|
--------------------------|------------------------------|
--------------------------|----------------7p--5---------|
--0--0--0--0--------0--0--|--0-0--0--0--0---------7h--8--|
--0--0--0--0--------0--0--|--0-0--0--0--0----------------|


  PM PM PM PM       PM PM    PM PM PM PM PM PM PM PM PM PM
  E  E  E  E  E  E  E  E     S  S  E  E  E  S  S  E  E  E
--------------------------|--------------------------------|
--------------------------|--------------------------------|
--------------------------|--------------------------------|
--------------------------|--------------------------------|
--0--0--0--0--------0--0--|--0--0--0--0--0--0--0--0--0--0--|
--0--0--0--0--------0--0--|--0--0--0--0--0--0--0--0--0--0--|


  PM PM PM PM       PM PM      PM PM PM PM
  E  E  E  E  E  E  E  E     S S  E  E  E  E   E  E   E
--------------------------|------------------------------|
--------------------------|------------------------------|
--------------------------|------------------------------|
--------------------------|----------------7p--5---------|
--0--0--0--0--------0--0--|--0-0--0--0--0---------8p--7--|
--0--0--0--0--------0--0--|--0-0--0--0--0----------------|


  E  E  E  E  E  E  E  E     E  E  E  E  E  E  E  E
--------------------------|--------------------------|
--------------------------|--------------------------|
--------------------------|--------------------------|
--3--3--3--3--3--3--3--3--|--5--5--5--5--7--7--7--7--|
--5--5--5--5--5--5--5--5--|--7--7--7--7--8--8--8--8--|
--------------------------|--------------------------|


     PM    PM    PM              PM    PM    PM
  E  E  E  E  E  E   E  E     E  E  E  E  E  E   E  E
---------------------------|---------------------------|
---------------------------|---------------------------|
---------------------------|---------------------------|
--0---------------------0--|--L---------------------8--|
--0-----8-----7---------0--|--L-----8-----7-----10--8--|
--0--0-----0-----0--10--0--|--L--0-----0-----0------8--|


     PM    PM    PM
  E  E  E  E  E  E   E  E     E   E  S  S  E  E  E   E  E
---------------------------|-------------------------------|
---------------------------|-------------------------------|
---------------------------|-------------------------------|
--L---------------------7--|--L--10--8p-7---------------0--|
--L-----8-----7---------7--|--L-----------10--8--7------0--|
--L--8-----8-----8--10--7--|--L---------------------10--0--|


     PM    PM    PM              PM    PM    PM
  E  E  E  E  E  E   E  E     E  E  E  E  E  E   E  E
---------------------------|---------------------------|
---------------------------|---------------------------|
---------------------------|---------------------------|
--L---------------------0--|--L------------------------|
--L-----8-----7---------0--|--L-----8-----7-----10--8--|
--L--0-----0-----0--10--0--|--L--0-----0-----0---------|


         PM         PM
   E  E  E  Q    E  E  E     E  S  S E  E  E  E  E  E
--------------------------|----------------------------|
--------------------------|----------------------------|
-----------------------7--|--L--5h-7-5-----------------|
------5--5--8----7--5-----|-------------8--7--5-----0--|
---L----------------------|----------------------8--0--|
--------------------------|-------------------------0--|


     PM    PM    PM             PM    PM    PM
  E  E  E  E  E  E  E  E     E  E  E  E  E  E  E  E
--------------------------|--------------------------|
--------------------------|--------------------------|
--------------------------|--------------------------|
--L-----7-----5--------0--|--L-----7-----5-----8--8--|
--L-----------------7--0--|--L--------------------8--|
--L--0-----0-----0-----0--|--L--0-----0-----0-----8--|


     PM    PM    PM
  E  E  E  E  E  E  E  E     E   E  S  S  E  E  E   E  E
--------------------------|-------------------------------|
--------------------------|-------------------------------|
--------------------------|-------------------------------|
--L-----7-----5--------7--|--L--10--8p-7---------------0--|
--L-----------------7--7--|--L-----------10--8--7------0--|
--L--8-----8-----8-----7--|--L---------------------10--0--|


     PM    PM    PM             PM    PM    PM
  E  E  E  E  E  E  E  E     E  E  E  E  E  E  E  E
--------------------------|--------------------------|
--------------------------|--------------------------|
--------------------------|--------------------------|
--L-----7-----5--------0--|--L-----7-----5-----8-----|
--L-----------------7--0--|--L--------------------8--|
--L--0-----0-----0-----0--|--L--0-----0-----0--------|


         PM         PM
   E  E  E  Q    E  E  E     E  S  S E  E  E  E  E  E
--------------------------|----------------------------|
--------------------------|----------------------------|
-----------------------7--|--L--5h-7-5--------------5--|
------5--5--8----7--5-----|-------------8--7--5-----5--|
---L----------------------|----------------------8--3--|
--------------------------|----------------------------|


  E  E  E  E  E  E  E  E     Q    Q    Q    E  E     H.           E  E
--------------------------|-----------------------|---------------------|
--------------------------|-----------------------|---------------------|
-----5--5--5--5--5--5--5--|--5--------------------|---------------------|
--L--5--5--5--5--5--5--5--|--5-----------------0--|--L------------L--3--|
--L--3--3--3--3--3--3--3--|--3-----------------0--|--L------------L--3--|
--------------------------|--------------------0--|--L------------L--3--|


  H.           E  E     E  E  E  E  E  E  E  E     E  E  E  E  E  E  E  E
---------------------|--------------------------|--------------------------|
---------------------|--------------------------|--------------------------|
---------------------|--------------------------|--------------3--5--------|
--L------------L--8--|--------8--8--8--8--------|--x--x--x--x--3--5-----0--|
--L------------L--8--|--------8--8--8--8--------|--x--x--x--x--1--3-----0--|
--L------------L--8--|--------8--8--8--8--------|--x--x--x--x-----------0--|


  E  E  Q    E  E  E  E     E  E  Q    E  E  E  E     E  E  Q    E  E  E  E
-------------------------|-------------------------|-------------------------|
-------------------------|-------------------------|-------------------------|
----------------------5--|--L--5--5----5--5--5--3--|--L--3--3----3--3--3--5--|
--L--0--0----0--0--0--5--|--L--5--5----5--5--5--3--|--L--3--3----3--3--3--5--|
--L--0--0----0--0--0--3--|--L--3--3----3--3--3--1--|--L--1--1----1--1--1--3--|
--L--0--0----0--0--0-----|-------------------------|-------------------------|


  E  E  Q    E  E  E  E     E  E  Q    E  E  E  E     E  E  Q    E  E  E  E
-------------------------|-------------------------|-------------------------|
-------------------------|-------------------------|-------------------------|
--L--5--5----5--5--5-----|----------------------5--|--L--5--5----5--5--5--3--|
--L--5--5----5--5--5--0--|--L--0--0----0--0--0--5--|--L--5--5----5--5--5--3--|
--L--3--3----3--3--3--0--|--L--0--0----0--0--0--3--|--L--3--3----3--3--3--1--|
----------------------0--|--L--0--0----0--0--0-----|-------------------------|


  E  E  Q    E  E  E  E     E  E  Q    E  E  E  E     E  E  Q    E  E  E  E
-------------------------|-------------------------|-------------------------|
-------------------------|-------------------------|-------------------------|
--L--3--3----3--3--3--3--|--L--3--3----3--3--3-----|----------------------5--|
--L--3--3----3--3--3--3--|--L--3--3----3--3--3--0--|--L--0--0----0--0--0--5--|
--L--1--1----1--1--1--1--|--L--1--1----1--1--1--0--|--L--0--0----0--0--0--3--|
-------------------------|----------------------0--|--L--0--0----0--0--0-----|


  E  E  Q    E  E  E  E     E  E  Q    E  E  E  E     E  E  Q    E  E  E  E
-------------------------|-------------------------|-------------------------|
-------------------------|-------------------------|-------------------------|
--L--5--5----5--5--5--3--|--L--3--3----3--3--3--5--|--L--5--5----5--5--5-----|
--L--5--5----5--5--5--3--|--L--3--3----3--3--3--5--|--L--5--5----5--5--5--0--|
--L--3--3----3--3--3--1--|--L--1--1----1--1--1--3--|--L--3--3----3--3--3--0--|
-------------------------|-------------------------|----------------------0--|


  W                   W                   W
-------------------|-------------------|-------------------|
-------------------|-------------------|-------------------|
-------------------|-------------------|-------------------|
--L----------------|--0----------------|--0----------------|
--L----------------|--0----------------|--0----------------|
--L----------------|--0----------------|--0----------------|

Solo


  H        E  Q    E      Q      Q      Q       E   E
----------------------|--12-----12---------------------|
----------------------|--15b----15b----15br----13--12--|
----------------------|--------------------------------|
--0--------0----------|--------------------------------|
--0--------0----------|--------------------------------|
--0--------0----------|--------------------------------|


  Q     E   E   E   E   E   E     Q     E   E   E   E   E   E
-------------------------------|-------------------------------|
--L----12--12--12--13--15------|-------------------------------|
---------------------------12--|--L----12--12--12--14--12--11--|
-------------------------------|-------------------------------|
-------------------------------|-------------------------------|
-------------------------------|-------------------------------|


  E   E   E   H         E     E   E   E   E   E   E   E   E
---------------------------|---------------------------------|
---------------------------|---------15----------15----------|
--L--12--11------------11--|--L--12------11--12------11--12--|
-------------12------------|---------------------------------|
---------------------------|---------------------------------|
---------------------------|---------------------------------|


   E   E   E   E   E   E   E   E      E   E   E   E   E   E   E   E
----------------------------------|------14----------14----------14--|
--17----------17----------17------|----------------------------------|
------11--12------11--12------11--|--12------11--12------11--12------|
----------------------------------|----------------------------------|
----------------------------------|----------------------------------|
----------------------------------|----------------------------------|


   S  S  S  S  S  S  S  S  S  S  S  S  S  S  S  S
--15-15-15-15-14-14-14-14-12-12-12-12-14-14-14-14-|
--------------------------------------------------|
--------------------------------------------------|
--------------------------------------------------|
--------------------------------------------------|
--------------------------------------------------|


   S  S  S  S  S  S  S  S  S  S  S  S  S  S  S  S
--15-14-12-12-15-14-12-12-15-14-12-12-15-14-12-12-|
--------------------------------------------------|
--------------------------------------------------|
--------------------------------------------------|
--------------------------------------------------|
--------------------------------------------------|


   S  S  S  S  S  S  S  S  S  S  S  S  S  S  S  S
--17-15-14-14-17-15-14-14-17-15-14-14-17-15-14-14-|
--------------------------------------------------|
--------------------------------------------------|
--------------------------------------------------|
--------------------------------------------------|
--------------------------------------------------|


   S  S  S  S  S  S  S  S  S  S  S  S  S  S  S  S
--19-17-15-15-19-17-15-15-19-17-15-15-19-17-15-15-|
--------------------------------------------------|
--------------------------------------------------|
--------------------------------------------------|
--------------------------------------------------|
--------------------------------------------------|


   S  S  S  S  S  S  S  S  S  S  S  S  Q           H          E   E   E   E
--20-20-20-20-19-19-19-19-17-17-17-17-15b----|---------------15--17--19--17--|
---------------------------------------------|--<>17~------------------------|
---------------------------------------------|-------------------------------|
---------------------------------------------|-------------------------------|
---------------------------------------------|-------------------------------|
---------------------------------------------|-------------------------------|


  Q     E   E   E   E   E   E     H.            Q        H          H
--L----17--17--17--19--20------|---------------------|--17b------------------|
---------------------------19--|--L------------20----|-------------19--------|
-------------------------------|---------------------|-----------------------|
-------------------------------|---------------------|-----------------------|
-------------------------------|---------------------|-----------------------|
-------------------------------|---------------------|-----------------------|


                   PM      PM PM PM PM PM   PM PM PM PM PM
     H.            Q       S  S  S  S  Q    S  S  S  S  Q
------------------------|------------------------------------|
--<>17~-----------------|------------------------------------|
------------------------|------------------------------------|
------------------------|------------------------------------|
-------------------0----|--0--0--0--0--0----0--0--0--0--0----|
-------------------0----|--0--0--0--0--0----0--0--0--0--0----|


               PM      PM PM PM PM PM   PM PM PM PM PM
  H.           Q       S  S  S  S  Q    S  S  S  S  Q
--------------------|------------------------------------|
--------------------|------------------------------------|
--------------------|------------------------------------|
--------------------|------------------------------------|
--L------------0----|--0--0--0--0--0----0--0--0--0--0----|
--L------------0----|--0--0--0--0--0----0--0--0--0--0----|


  PM PM PM       PM      PM PM PM PM PM   PM PM PM PM PM
  E  E  H        Q       S  S  S  S  Q    S  S  S  S  Q
----------------------|------------------------------------|
----------------------|------------------------------------|
----------------------|------------------------------------|
----------------------|------------------------------------|
--0--0--0--------0----|--0--0--0--0--0----0--0--0--0--0----|
--0--0--0--------0----|--0--0--0--0--0----0--0--0--0--0----|


               PM      PM PM PM PM PM   PM PM PM PM PM
  H.           Q       S  S  S  S  Q    S  S  S  S  Q
--------------------|------------------------------------|
--------------------|------------------------------------|
--------------------|------------------------------------|
--------------------|------------------------------------|
--L------------0----|--0--0--0--0--0----0--0--0--0--0----|
--L------------0----|--0--0--0--0--0----0--0--0--0--0----|


  PM PM PM       PM      PM PM PM PM PM   PM PM PM PM PM
  E  E  H        Q       S  S  S  S  Q    S  S  S  S  Q
----------------------|------------------------------------|
----------------------|------------------------------------|
----------------------|------------------------------------|
----------------------|------------------------------------|
--0--0--0--------0----|--0--0--0--0--0----0--0--0--0--0----|
--0--0--0--------0----|--0--0--0--0--0----0--0--0--0--0----|


               PM      PM PM PM PM PM   PM PM PM PM PM
  H.           Q       S  S  S  S  Q    S  S  S  S  Q
--------------------|------------------------------------|
--------------------|------------------------------------|
--------------------|------------------------------------|
--------------------|------------------------------------|
--L------------0----|--0--0--0--0--0----0--0--0--0--0----|
--L------------0----|--0--0--0--0--0----0--0--0--0--0----|


  PM PM PM       PM      PM PM PM PM PM   PM PM PM PM PM
  E  E  H        Q       S  S  S  S  Q    S  S  S  S  Q
----------------------|------------------------------------|
----------------------|------------------------------------|
----------------------|------------------------------------|
----------------------|------------------------------------|
--0--0--0--------0----|--0--0--0--0--0----0--0--0--0--0----|
--0--0--0--------0----|--0--0--0--0--0----0--0--0--0--0----|


               PM      PM PM PM PM PM   PM            PM PM PM          PM
  H.           Q       S  S  S  S  Q    Q    E  E     E  E  E  E  E  E  E  E
--------------------|------------------------------|--------------------------|
--------------------|------------------------------|--------------------------|
--------------------|------------------------------|--------------------------|
--------------------|------------------------------|--------------------------|
--L------------0----|--0--0--0--0--0----0----------|--0--0--0-----------0-----|
--L------------0----|--0--0--0--0--0----0----------|--0--0--0-----------0-----|


  PM PM PM PM PM    PM PM PM PM PM                    PM
  S  S  S  S  E  E  S  S  S  S  E  E     H.           E  E
--------------------------------------|---------------------|
--------------------------------------|---------------------|
--------------------------------------|---------------------|
--------------------------------------|---------------------|
--0--0--0--0--0-----0--0--0--0--0-----|---------------0-----|
--0--0--0--0--0-----0--0--0--0--0-----|---------------0-----|


  PM PM PM PM PM    PM PM PM PM PM       PM PM PM          PM
  S  S  S  S  E  E  S  S  S  S  E  E     E  E  E  E  E  E  E  E
--------------------------------------|--------------------------|
--------------------------------------|--------------------------|
--------------------------------------|--------------------------|
--------------------------------------|--------------------------|
--0--0--0--0--0-----0--0--0--0--0-----|--0--0--0-----------0-----|
--0--0--0--0--0-----0--0--0--0--0-----|--0--0--0-----------0-----|


  PM PM PM PM PM    PM PM PM PM PM                    PM
  S  S  S  S  E  E  S  S  S  S  E  E     H.           E  E
--------------------------------------|---------------------|
--------------------------------------|---------------------|
--------------------------------------|---------------------|
--------------------------------------|---------------------|
--0--0--0--0--0-----0--0--0--0--0-----|---------------0-----|
--0--0--0--0--0-----0--0--0--0--0-----|---------------0-----|


  PM PM PM PM PM    PM PM PM PM PM       PM PM PM       PM
  S  S  S  S  E  E  S  S  S  S  E  E     E  E  H        Q
--------------------------------------|----------------------|
--------------------------------------|----------------------|
--------------------------------------|----------------------|
--------------------------------------|----------------------|
--0--0--0--0--0-----0--0--0--0--0-----|--0--0--0--------0----|
--0--0--0--0--0-----0--0--0--0--0-----|--0--0--0--------0----|


  PM PM PM PM PM   PM PM PM PM PM                   PM
  S  S  S  S  Q    S  S  S  S  Q       H.           Q
------------------------------------|--------------------|
------------------------------------|--------------------|
------------------------------------|--------------------|
------------------------------------|--------------------|
--0--0--0--0--0----0--0--0--0--0----|--L------------0----|
--0--0--0--0--0----0--0--0--0--0----|--L------------0----|


  PM PM PM PM PM   PM PM PM PM PM      PM PM PM       PM
  S  S  S  S  Q    S  S  S  S  Q       E  E  H        Q
------------------------------------|----------------------|
------------------------------------|----------------------|
------------------------------------|----------------------|
------------------------------------|----------------------|
--0--0--0--0--0----0--0--0--0--0----|--0--0--0--------0----|
--0--0--0--0--0----0--0--0--0--0----|--0--0--0--------0----|


  PM PM PM PM PM   PM PM PM PM PM                   PM
  S  S  S  S  Q    S  S  S  S  Q       H.           Q
------------------------------------|--------------------|
------------------------------------|--------------------|
------------------------------------|--------------------|
------------------------------------|--------------------|
--0--0--0--0--0----0--0--0--0--0----|--L------------0----|
--0--0--0--0--0----0--0--0--0--0----|--L------------0----|


  PM PM PM PM
  E  E  E  E  Q    Q
------------------------||
------------------------||
------------------------||
--------------0---------||
--0--0--0--0--0---------||
--0--0--0--0--0---------||





Comments


Popular I Killed The Prom Queen tabs & chords
666 Tabs
Death Certificate For A Beauty Queen Tabs
Deepest Sleep Intro Tabs
Forgiveness Is Murder Tabs
Like Nails To A Casket Tabs
Never Never Land Tabs
Sharks In Your Mouth 1 Tabs
Sharks In Your Mouth 3 Tabs
Sleepless Nights And City Lights Tabs
When Goodbye Means Forever Tabs


Song lyrics



↑ Back to top | Tablatures and chords are parodies/interpretations of the original songs. You may use it for private study, scholarship, research or language learning purposes only
© 2014 AZChords.com Contact us | Privacy policy | DMCA | Add/correct tabs | Request tabs | Top 50 tabs