» » »

I Killed The Prom Queen, Upon A Rivers Sky Bass tabs (ver.1)

Artists:  A B C D E F G H I J K L M N O P Q R S T U V W X Y Z # 

Upon A Rivers Sky Bass tabs (ver.1)

I Killed The Prom Queen Tabs
 Rating:
4/5 (4 votes)
Upon A Rivers Sky lessons Tabs too difficult? Try these video lessons and learn fast
1
                Band:			I KILLED THE PROM QUEEN
Album/EP:		WHEN GOODBYE MEANS FOREVER
Label:			RESIST (AUS), HAND OF HOPE (USA)
Bassist:		SEAN KENNEDY
Studio:			SOUND HOUSE STUDIO, ADELAIDE, AUS
Tuning:			DROP C (CGCF)


VERSE PT 1 x2 (ENTER 0.25, AFTER ACOUSTIC START)

F|-------------------------------------------------------|
C|-------------------------------------------------------|
G|-------------------------------------------------------|
C|-1010101010101010-88888888-33333333-55555555-----------| (10’s)

VERSE PT 2 x 8

F|-------------------|
C|-------------------|
G|-------------------|
C|-0-0-0-0-----------|


VERSE PT 1 x1

F|-------------------------------------------------------|
C|-------------------------------------------------------|
G|-------------------------------------------------------|
C|-1010101010101010-88888888-33333333-55555555-----------| (10’s)

BRIDGE x2

F|--------------------------------------------------------|
C|--------------------------------------------------------|
G|--------------------------------------------------------|
C|12-12-12-12-12-12-12-12—8-8-8-8-8-8-8-8-----------------|

F|--------------------------------------------------------|
C|--------------------------------------------------------|
G|--------------------------------------------------------|
C|3-3-3-3-3-3-3-3-5-5-5-5-5-5-5-5-------------------------|

VERSE PT 1 x1

F|-------------------------------------------------------|
C|-------------------------------------------------------|
G|-------------------------------------------------------|
C|-1010101010101010-88888888-33333333-55555555-----------| (10’s)

BRIDGE x1

F|--------------------------------------------------------|
C|--------------------------------------------------------|
G|--------------------------------------------------------|
C|12-12-12-12-12-12-12-12—8-8-8-8-8-8-8-8-----------------|

F|--------------------------------------------------------|
C|--------------------------------------------------------|
G|--------------------------------------------------------|
C|3-3-3-3-3-3-3-3-5-5-5-5-5-5-5-5-------------------------|

BREAKDOWN PT 1 x4

F|------------------------------------------------------------|
C|------------------------------------------------------------|
G|------------------------------------------------------------|
C|-0-7-7h8-8-0000---0-7-7h8-8---0-7-7h8-8-0000--10-10h12------|

BREAKDOWN PT 2 x1

F|------------------------------------------------------|
C|------------------------------------------------------|
G|---------------3-7-5-3-5-3-2-0~~----------------------|
C|--0~~--0~~--------------------------------------------|

BREAKDOWN PT 3 x4

F|------------------------------------------------------------------|
C|------------------------------------------------------------------|
G|------------------------------------------------------------------|
C|0—-0--00--000-0-10--10--1010--101010-10-8—-8--88--888-8-14~-------|

VERSE x1

F|-------------------------------------------------------|
C|-------------------------------------------------------|
G|-------------------------------------------------------|
C|-1010101010101010-88888888-33333333-55555555-----------| (10’s)

BASS SOLO x1 (Not 100%)

F|--------------------------------|
C|------555-----------------------|
G|---333---666-555-3-5~-----------|
C|--------------------------------|

VERSE x2

F|-------------------------------------------------------|
C|-------------------------------------------------------|
G|-------------------------------------------------------|
C|-1010101010101010-88888888-33333333-55555555-----------| (10’s)

END x1

F|-------------------|
C|-------------------|
G|-------------------|
C|-0-0-0-0-----------|

Thanks to the guy that did the Upon a Rivers Sky Guitar Tab, It pushed me into the righgt direction
            
Submit corrections

comments powered by Disqus
↑ Back to top | I Killed The Prom Queen Bass for Upon A Rivers Sky. Lyrics for acoustic guitar and electric guitar. 1 Tablatures and chords are parodies/interpretations of the original songs. You may use it for private study, scholarship, research or language learning purposes only