>
 >
Upon A Rivers Sky

Upon A Rivers Sky Bass Tabs

I Killed The Prom Queen - Upon A Rivers Sky chords, tabs, tablatures, lyrics

Guitar lessons | Add/correct | Request | Top 50 tabs Artists:  A B C D E F G H I J K L M N O P Q R S T U V W X Y Z 0-9

Upon A Rivers Sky Bass Tabs – I Killed The Prom Queen

CD, Sheet music, Poster

Do you like Upon A Rivers Sky? Share with your friends now
Bass TabsTabs
Band:			I KILLED THE PROM QUEEN
Album/EP:		WHEN GOODBYE MEANS FOREVER
Label:			RESIST (AUS), HAND OF HOPE (USA)
Bassist:		SEAN KENNEDY
Studio:			SOUND HOUSE STUDIO, ADELAIDE, AUS
Tuning:			DROP C (CGCF)


VERSE PT 1 x2 (ENTER 0.25, AFTER ACOUSTIC START)

F|-------------------------------------------------------|
C|-------------------------------------------------------|
G|-------------------------------------------------------|
C|-1010101010101010-88888888-33333333-55555555-----------| (10s)

VERSE PT 2 x 8

F|-------------------|
C|-------------------|
G|-------------------|
C|-0-0-0-0-----------|


VERSE PT 1 x1

F|-------------------------------------------------------|
C|-------------------------------------------------------|
G|-------------------------------------------------------|
C|-1010101010101010-88888888-33333333-55555555-----------| (10s)

BRIDGE x2

F|--------------------------------------------------------|
C|--------------------------------------------------------|
G|--------------------------------------------------------|
C|12-12-12-12-12-12-12-128-8-8-8-8-8-8-8-----------------|

F|--------------------------------------------------------|
C|--------------------------------------------------------|
G|--------------------------------------------------------|
C|3-3-3-3-3-3-3-3-5-5-5-5-5-5-5-5-------------------------|

VERSE PT 1 x1

F|-------------------------------------------------------|
C|-------------------------------------------------------|
G|-------------------------------------------------------|
C|-1010101010101010-88888888-33333333-55555555-----------| (10s)

BRIDGE x1

F|--------------------------------------------------------|
C|--------------------------------------------------------|
G|--------------------------------------------------------|
C|12-12-12-12-12-12-12-128-8-8-8-8-8-8-8-----------------|

F|--------------------------------------------------------|
C|--------------------------------------------------------|
G|--------------------------------------------------------|
C|3-3-3-3-3-3-3-3-5-5-5-5-5-5-5-5-------------------------|

BREAKDOWN PT 1 x4

F|------------------------------------------------------------|
C|------------------------------------------------------------|
G|------------------------------------------------------------|
C|-0-7-7h8-8-0000---0-7-7h8-8---0-7-7h8-8-0000--10-10h12------|

BREAKDOWN PT 2 x1

F|------------------------------------------------------|
C|------------------------------------------------------|
G|---------------3-7-5-3-5-3-2-0~~----------------------|
C|--0~~--0~~--------------------------------------------|

BREAKDOWN PT 3 x4

F|------------------------------------------------------------------|
C|------------------------------------------------------------------|
G|------------------------------------------------------------------|
C|0-0--00--000-0-10--10--1010--101010-10-8-8--88--888-8-14~-------|

VERSE x1

F|-------------------------------------------------------|
C|-------------------------------------------------------|
G|-------------------------------------------------------|
C|-1010101010101010-88888888-33333333-55555555-----------| (10s)

BASS SOLO x1 (Not 100%)

F|--------------------------------|
C|------555-----------------------|
G|---333---666-555-3-5~-----------|
C|--------------------------------|

VERSE x2

F|-------------------------------------------------------|
C|-------------------------------------------------------|
G|-------------------------------------------------------|
C|-1010101010101010-88888888-33333333-55555555-----------| (10s)

END x1

F|-------------------|
C|-------------------|
G|-------------------|
C|-0-0-0-0-----------|

Thanks to the guy that did the Upon a Rivers Sky Guitar Tab, It pushed me into the righgt direction





Comments


Popular I Killed The Prom Queen tabs & chords
To Kill Tomorrow Bass Tabs
Deepest Sleep Tabs
Headfirst From A Hangmans Noose Tabs
Sharks In Your Mouth Tabs
Sharks In Your Mouth 5 Tabs
Slain Upon My Faithful Sword Tabs
Slain Upon My Faithful Sword Intro Tabs
The Paint Brush Killer Tabs
There Will Be No Violins When You Die Tabs
To Kill Tomorrow Intro Tabs


Song lyrics



↑ Back to top | Tablatures and chords are parodies/interpretations of the original songs. You may use it for private study, scholarship, research or language learning purposes only
© 2014 AZChords.com Contact us | Privacy policy | DMCA | Add/correct tabs | Request tabs | Top 50 tabs