>
 >
Upon A Rivers Sky

Upon A Rivers Sky Guitar Tabs

I Killed The Prom Queen - Upon A Rivers Sky chords, tabs, tablatures, lyrics

Guitar lessons | Add/correct | Request | Top 50 tabs Artists:  A B C D E F G H I J K L M N O P Q R S T U V W X Y Z 0-9

Upon A Rivers Sky Guitar Tabs – I Killed The Prom Queen

CD, Sheet music, Poster

Do you like Upon A Rivers Sky? Share with your friends now
Bass TabsTabs
when u copy this tab to word, print it as courier new 7.5 size font
This tab is very close, it has pretty much everything except for the outro

Upon a Rivers Sky

Intro (repeat as necessary)
e----------------------------------------------------------------
B----------------------------------------------------------------
G----------------------------------------------------------------
D-15-15-15-15-15-15--10-10-10-10-10-10--3-3-3-3-3-3--7-7-7-7-7-7-
A-12-12-12-12-12-12---8--8--8--8--8--8--3-3-3-3-3-3--5-5-5-5-5-5-
D-12-12-12-12-12-12---8--8--8--8--8--8--3-3-3-3-3-3--5-5-5-5-5-5-

Verse (repeat as necessary) "Rebellion of a driven prince..."
e--------------------------------------------------------------------
B--------------------------------------------------------------------
G-7-7-7-7-7-7-7-7-------------------5-5-5-5-5-5-5-5--7-7-7-7-7-7-7-7-
D-7-7-7-7-7-7-7-7--8-8-8-8-8-8-8-8--3-3-3-3-3-3-3-3--5-5-5-5-5-5-5-5-
A-5-5-5-5-5-5-5-5--8-8-8-8-8-8-8-8--3-3-3-3-3-3-3-3--5-5-5-5-5-5-5-5-
D------------------8-8-8-8-8-8-8-8--3-3-3-3-3-3-3-3--5-5-5-5-5-5-5-5-

Bridge 1 (repeat as necessary)
e---------------------
B---------------------
G----------5-7-10-9-7-
D-0-0-0-0--x-x-x--x-x-
A-0-0-0-0-3/5/8--7-5-
D-0-0-0-0-------------
  . . . .    

Verse (repeat as necessary) " This time I will not be denied..."
e--------------------------------------------------------------------
B--------------------------------------------------------------------
G-7-7-7-7-7-7-7-7-------------------5-5-5-5-5-5-5-5--7-7-7-7-7-7-7-7-
D-7-7-7-7-7-7-7-7--8-8-8-8-8-8-8-8--3-3-3-3-3-3-3-3--5-5-5-5-5-5-5-5-
A-5-5-5-5-5-5-5-5--8-8-8-8-8-8-8-8--3-3-3-3-3-3-3-3--5-5-5-5-5-5-5-5-
D------------------8-8-8-8-8-8-8-8--3-3-3-3-3-3-3-3--5-5-5-5-5-5-5-5-

Bridge 2 (repeat as necessary) "today, forever I will not be denied..."
e------------------------------------------------------------------------------------
B------------------------------------------------------------------------------------
G------------------------------------------------------------------------------------
D-15-15-15-15-15-15-15-15--10-10-10-10-10-10-10-10--3-3-3-3-3-3-3-3--7-7-7-7-7-7-7-7-
A-12-12-12-12-12-12-12-12---8--8--8--8--8--8--8-8--3-3-3-3-3-3-3-3--5-5-5-5-5-5-5-5-
D-12-12-12-12-12-12-12 12---8--8--8--8--8-8-8-8--3-3-3-3-3-3-3-3--5-5-5-5-5-5-5-5-

Interlude???
Guitar 1 (repeat) "The sixth demon pulls his strings (screamed)...and he will see"
e------------------------------------------------------------------
B------------------------------------------------------------------
G------------------------------------------------------------------
D-0--7-7h8-8----0-0-0-0--7-7h8-8----0--7-7h8-8----0-0-0-0--10-10h12-
A-0--7-7h8-8----0-0-0-0--7-7h8-8----0--7-7h8-8----0-0-0-0--10-10h12-
D-0--7-7h8-8----0-0-0-0--7-7h8-8----0--7-7h8-8----0-0-0-0--10-10h12-
                . . . .                           . . . .        

Guitar 2 (comes in later) " The sixth demon (spoken)"
e---------------------------------------
B---------------------------------------
G---------------------------------------
D-0-15-15/14----0-0-0-015-15/14-14-17- 
A-0-15-15/14----0-0-0-015-15/14-14-17-
D-0-15-15/14----0-0-0-015-15/14-14-17-
              . . . .    

Bridge 2 
Guitar 1 (guitar 2 plays octaves or something)
e---------
B---------
G---------
D-0-0-0-0-
A-0-0-0-0
D-0-0-0-0-



After interlude
Guitar 1 (repeat as necessary)
e----------------------------------------------------------------------------------------------
B----------------------------------------------------------------------------------------------
G----------------------------------------------------------------------------------------------
D-0--0--0-0--0--0-0--0---10--10--10-10--10--10-10--10---8--8--8-8--8--8-8--8--14-14/15-15/17-15
A-0--0--0-0--0--0-0--0---10--10--10-10--10--10-10-10---8--8--8-8--8--8-8--8---x--x--x--x--x-=x
D-0--0--0-0--0--0-0--0---10--10-10-10--10-10-10--10---8--8--8-8--8--8-8--8--14-14/15-15/17-15
  .  .  . .  .  . .  .    .   .   .  .   .   .  .   .   .  .  . .  .  . .  .

Guitar 2 (repeat as necessary)
e-13-----13------12-----13-----
B---10-----10------10-----10---
G-----10-----10------10-----10-  x3 (then play the continuation)
D----------------------------
A----------------------------
D------------------------------

Cont...
e------------
B------------
G-9-10-12-10-
D-x--x--x--x-
A-7--8-10--8-
D------------





Comments


Popular I Killed The Prom Queen tabs & chords
Say Goodbye Bass Tabs
Columbian Necktie Tabs
Deepest Sleep Intro Tabs
Say Goodbye Tabs
Sharks In Your Mouth Tabs
Sharks In Your Mouth 1 Tabs
Sharks In Your Mouth 6 Tabs
Sleepless Nights And City Lights Tabs
There Will Be No Violins When You Die 1 Tabs
To Be Sleeping While Standing Tabs


Song lyrics



↑ Back to top | Tablatures and chords are parodies/interpretations of the original songs. You may use it for private study, scholarship, research or language learning purposes only
© 2014 AZChords.com Contact us | Privacy policy | DMCA | Add/correct tabs | Request tabs | Top 50 tabs