>
 >
Sleepless Nights And City Lights

Sleepless Nights And City Lights Guitar Tabs

I Killed The Prom Queen - Sleepless Nights And City Lights chords, tabs, tablatures, lyrics

Guitar lessons | Add/correct | Request | Top 50 tabs Artists:  A B C D E F G H I J K L M N O P Q R S T U V W X Y Z 0-9

Sleepless Nights And City Lights Guitar Tabs – I Killed The Prom Queen

CD, Sheet music, Poster

Do you like Sleepless Nights And City Lights? Share with your friends now
Tabs
      E  S S S S E  E  S S S S E   
C#||------------------------------|
G#||------------------------------|
E ||--7----------7--9----------9--|
B ||------------------------------|
F#||--5----------5--7----------7--|
B ||-----0-0-0-0-------8-8-8-8----|


                      TP TP  TP TPTP TP  TP TP                                
   E   S  S  S  S  E  S  S   S  S S  S   S  S    E  S S S S E  E  S S S S E   
----------------------------------------------|------------------------------|
----------------------------------------------|------------------------------|
--10--------------10--------------------------|--7----------7--9----------9--|
----------------------7--7--------------------|------------------------------|
---8---------------8--------10-10-8--8--10-10-|--5----------5--7----------7--|
------10-10-10-10-----------------------------|-----0-0-0-0-------8-8-8-8----|


                      TP TP TP TP TP TP  TP TP                                
   E   S  S  S  S  E  S  S  S  S  S  S   S  S    E  S S S S E  E  S S S S E   
----------------------------------------------|------------------------------|
----------------------------------------------|------------------------------|
--10--------------10--------------------------|--7----------7--9----------9--|
----------------------7--7--7--7--------------|------------------------------|
---8---------------8--------------8--8--10-10-|--5----------5--7----------7--|
------10-10-10-10-----------------------------|-----0-0-0-0-------8-8-8-8----|


                      TP TP  TP TPTP TP  TP TP                                
   E   S  S  S  S  E  S  S   S  S S  S   S  S    E  S S S S E  E  S S S S E   
----------------------------------------------|------------------------------|
----------------------------------------------|------------------------------|
--10--------------10--------------------------|--7----------7--9----------9--|
----------------------7--7--------------------|------------------------------|
---8---------------8--------10-10-8--8--10-10-|--5----------5--7----------7--|
------10-10-10-10-----------------------------|-----0-0-0-0-------8-8-8-8----|


                      TP TP TP TP TP TP  TP TP                                
   E   S  S  S  S  E  S  S  S  S  S  S   S  S    E  S S S S E  E  S S S S E   
----------------------------------------------|------------------------------|
----------------------------------------------|------------------------------|
--10--------------10--------------------------|--7----------7--9----------9--|
----------------------7--7--7--7--------------|------------------------------|
---8---------------8--------------8--8--10-10-|--5----------5--7----------7--|
------10-10-10-10-----------------------------|-----0-0-0-0-------8-8-8-8----|


                      TP TP  TP TPTP TP  TP TP                                
   E   S  S  S  S  E  S  S   S  S S  S   S  S    E  S S S S E  E  S S S S E   
----------------------------------------------|------------------------------|
----------------------------------------------|------------------------------|
--10--------------10--------------------------|--7----------7--9----------9--|
----------------------7--7--------------------|------------------------------|
---8---------------8--------10-10-8--8--10-10-|--5----------5--7----------7--|
------10-10-10-10-----------------------------|-----0-0-0-0-------8-8-8-8----|


                      TP TP TP TP TP TP  TP TP 
   E   S  S  S  S  E  S  S  S  S  S  S   S  S  
----------------------------------------------|
----------------------------------------------|
--10--------------10--------------------------|
----------------------7--7--7--7--------------|
---8---------------8--------------8--8--10-10-|
------10-10-10-10-----------------------------|


  S S S S S S S E  S S S S S S S    S S S S S S S E  S S S S S S S  
---------------------------------|---------------------------------|
---------------------------------|---------------------------------|
---------------------------------|---------------------------------|
---------------------------------|---------------------------------|
--------8---7---5----------------|--------8---7---5----------------|
--0-0-0---0---0----0-0-0-0-0-0-0-|--0-0-0---0---0----0-0-0-0-0-0-0-|


  S S S S S S S E  S S S S S S S    S S S S S S S S S S S S S S S S  
---------------------------------|----------------------------------|
---------------------------------|----------------------------------|
---------------------------------|----------------------------------|
---------------------------------|----------------------------------|
--------8---7---5----------------|----------------------------------|
--0-0-0---0---0----0-0-0-0-0-0-0-|--5-5-5-5-5-5-5-5-8-8-8-8-8-8-8-8-|


  S S S S S S S E  S S S S S S S    S S S S S S S E  S S S S S S S  
---------------------------------|---------------------------------|
---------------------------------|---------------------------------|
---------------------------------|---------------------------------|
---------------------------------|---------------------------------|
--------8---7---5----------------|--------8---7---5----------------|
--0-0-0---0---0----0-0-0-0-0-0-0-|--0-0-0---0---0----0-0-0-0-0-0-0-|


  S S S S S S S E  S S S S S S S    S S S S S S S S S S S S S S S S  
---------------------------------|----------------------------------|
---------------------------------|----------------------------------|
---------------------------------|----------------------------------|
---------------------------------|----------------------------------|
--------8---7---5----------------|----------------------------------|
--0-0-0---0---0----0-0-0-0-0-0-0-|--5-5-5-5-5-5-5-5-8-8-8-8-8-8-8-8-|


  W                   W                   W                 
-------------------|-------------------|-------------------|
-------------------|-------------------|-------------------|
-------------------|-------------------|-------------------|
--8----------------|--0----------------|--7----------------|
--8----------------|--0----------------|--7----------------|
--8----------------|--0----------------|--7----------------|


   W                   W                   W                 
--------------------|-------------------|-------------------|
--------------------|-------------------|-------------------|
--------------------|-------------------|-------------------|
--10----------------|--8----------------|--0----------------|
--10----------------|--8----------------|--0----------------|
--10----------------|--8----------------|--0----------------|


  W                    W                   W                 
-------------------|--------------------|-------------------|
-------------------|--------------------|-------------------|
-------------------|--------------------|-------------------|
--7----------------|--10----------------|--8----------------|
--7----------------|--10----------------|--8----------------|
--7----------------|--10----------------|--8----------------|


  W                   W                    W                 
-------------------|-------------------|--------------------|
-------------------|-------------------|--------------------|
-------------------|-------------------|--------------------|
--0----------------|--7----------------|--10----------------|
--0----------------|--7----------------|--10----------------|
--0----------------|--7----------------|--10----------------|


  W                   W                   W                 
-------------------|-------------------|-------------------|
-------------------|-------------------|-------------------|
-------------------|-------------------|-------------------|
--8----------------|--0----------------|--7----------------|
--8----------------|--0----------------|--7----------------|
--8----------------|--0----------------|--7----------------|


   W                   E.  E.  E.  S S S S S S S    E.  E.  E.  S S S S S S S  
--------------------|----------------------------|----------------------------|
--------------------|----------------------------|----------------------------|
--------------------|----------------------------|----------------------------|
--10----------------|----------------------------|----------------------------|
--10----------------|----------------------------|----------------------------|
--10----------------|--0---0---0-----------------|--0---0---0-----------------|


  E.  E.  E.  S S E  S E     E.  E.  E.  S S S S S S S  
--------------------------|----------------------------|
--------------------------|----------------------------|
--------------------------|----------------------------|
--------------------------|----------------------------|
--------------------------|----------------------------|
--0---0---0---0-0-0--0-0--|--0---0---0-----------------|


  E.  E.  E.  S S E  S E     E.  E.  E.  S S E  S E   
--------------------------|--------------------------|
--------------------------|--------------------------|
--------------------------|--------------------------|
--------------------------|--------------------------|
--------------------------|--------------------------|
--0---0---0---0-0-0--0-0--|--0---0---0---------------|


  E.  E.  E.  S S E  S E     E.  E.  E.  S S S S S S S  
--------------------------|----------------------------|
--------------------------|----------------------------|
--------------------------|----------------------------|
--------------------------|----------------------------|
--------------------------|----------------------------|
--0---0---0---0-0-0--0-0--|--0---0---0-----------------|


  E.  E.  E.  S S E  S E     E.  E.  E.  S S E  S E   
--------------------------|--------------------------|
--------------------------|--------------------------|
--------------------------|--------------------------|
--------------------------|--------------------------|
--------------------------|--------------------------|
--0---0---0---0-0-0--0-0--|--0---0---0---------------|


  S S S S S S S E  S S S S S S S    S S S S S S S E  S S S S S S S  
---------------------------------|---------------------------------|
---------------------------------|---------------------------------|
---------------------------------|---------------------------------|
---------------------------------|---------------------------------|
--------8---7---5----------------|--------8---7---5----------------|
--0-0-0---0---0----0-0-0-0-0-0-0-|--0-0-0---0---0----0-0-0-0-0-0-0-|


  S S S S S S S E  S S S S S S S    S S S S S S S S S S S S S S S S  
---------------------------------|----------------------------------|
---------------------------------|----------------------------------|
---------------------------------|----------------------------------|
---------------------------------|----------------------------------|
--------8---7---5----------------|----------------------------------|
--0-0-0---0---0----0-0-0-0-0-0-0-|--5-5-5-5-5-5-5-5-8-8-8-8-8-8-8-8-|


  S S S S S S S E  S S S S S S S    S S S S S S S E  S S S S S S S  
---------------------------------|---------------------------------|
---------------------------------|---------------------------------|
---------------------------------|---------------------------------|
---------------------------------|---------------------------------|
--------8---7---5----------------|--------8---7---5----------------|
--0-0-0---0---0----0-0-0-0-0-0-0-|--0-0-0---0---0----0-0-0-0-0-0-0-|


  S S S S S S S E  S S S S S S S    S S S S S S S S S S S S S S S S  
---------------------------------|----------------------------------|
---------------------------------|----------------------------------|
---------------------------------|----------------------------------|
---------------------------------|----------------------------------|
--------8---7---5----------------|----------------------------------|
--0-0-0---0---0----0-0-0-0-0-0-0-|--5-5-5-5-5-5-5-5-8-8-8-8-8-8-8-8-|


  W                   W                   W                 
-------------------|-------------------|-------------------|
-------------------|-------------------|-------------------|
-------------------|-------------------|-------------------|
--8----------------|--0----------------|--7----------------|
--8----------------|--0----------------|--7----------------|
--8----------------|--0----------------|--7----------------|


   W                   W                   W                 
--------------------|-------------------|-------------------|
--------------------|-------------------|-------------------|
--------------------|-------------------|-------------------|
--10----------------|--8----------------|--0----------------|
--10----------------|--8----------------|--0----------------|
--10----------------|--8----------------|--0----------------|


  W                    W                   W                 
-------------------|--------------------|-------------------|
-------------------|--------------------|-------------------|
-------------------|--------------------|-------------------|
--7----------------|--10----------------|--8----------------|
--7----------------|--10----------------|--8----------------|
--7----------------|--10----------------|--8----------------|


  W                   W                    W                 
-------------------|-------------------|--------------------|
-------------------|-------------------|--------------------|
-------------------|-------------------|--------------------|
--0----------------|--7----------------|--10----------------|
--0----------------|--7----------------|--10----------------|
--0----------------|--7----------------|--10----------------|


  W                   W                   W                 
-------------------|-------------------|-------------------|
-------------------|-------------------|-------------------|
-------------------|-------------------|-------------------|
--8----------------|--0----------------|--7----------------|
--8----------------|--0----------------|--7----------------|
--8----------------|--0----------------|--7----------------|


   W                   S S S E.  S S S E.  S S S S  
--------------------|------------------------------|
--------------------|------------------------------|
--------------------|------------------------------|
--10----------------|----------------------8-7-5---|
--10----------------|--------5---------5---------8-|
--10----------------|--0-0-0-----0-0-0-------------|


  S S  S S S  S S S S S S E.  S S    S E.  S S S  E.  S S S  E.   
----------------------------------|------------------------------|
----------------------------------|------------------------------|
----------------------------------|------------------------------|
------10-8-7--------------7-------|----8-------------------------|
--7-5--------10-8-7---------------|--------------10---------12---|
--------------------8-8-8-----8-8-|--8-----5-5-5------7-7-7------|


  S S S E.  S S S E.  S S S S    S S  S S S  S S S S S S E.  S S  
------------------------------|----------------------------------|
------------------------------|----------------------------------|
------------------------------|----------------------------------|
----------------------8-7-5---|------10-8-7--------------7-------|
--------5---------5---------8-|--7-5--------10-8-7---------------|
--0-0-0-----0-0-0-------------|--------------------8-8-8-----8-8-|


  S E.  S S S  E.  S S S  E.     S S S E.  S S S E.  S S S S  
------------------------------|------------------------------|
------------------------------|------------------------------|
------------------------------|------------------------------|
----8-------------------------|----------------------8-7-5---|
--------------10---------12---|--------5---------5---------8-|
--8-----5-5-5------7-7-7------|--0-0-0-----0-0-0-------------|


  S S  S S S  S S S S S S E.  S S    S E.  S S S  E.  S S S  E.   
----------------------------------|------------------------------|
----------------------------------|------------------------------|
----------------------------------|------------------------------|
------10-8-7--------------7-------|----8-------------------------|
--7-5--------10-8-7---------------|--------------10---------12---|
--------------------8-8-8-----8-8-|--8-----5-5-5------7-7-7------|


  S S S E.  S S S E.  S S S S    S S  S S S  S S S S S S E.  S S  
------------------------------|----------------------------------|
------------------------------|----------------------------------|
------------------------------|----------------------------------|
----------------------8-7-5---|------10-8-7--------------7-------|
--------5---------5---------8-|--7-5--------10-8-7---------------|
--0-0-0-----0-0-0-------------|--------------------8-8-8-----8-8-|


  S E.  S S S  E.  S S S  E.     S S S E.  S S S E.  S S S S  
------------------------------|------------------------------|
------------------------------|------------------------------|
------------------------------|------------------------------|
----8-------------------------|----------------------8-7-5---|
--------------10---------12---|--------5---------5---------8-|
--8-----5-5-5------7-7-7------|--0-0-0-----0-0-0-------------|


  S S  S S S  S S S S S S E.  S S    S E.  S S S  E.  S S S  E.   
----------------------------------|------------------------------|
----------------------------------|------------------------------|
----------------------------------|------------------------------|
------10-8-7--------------7-------|----8-------------------------|
--7-5--------10-8-7---------------|--------------10---------12---|
--------------------8-8-8-----8-8-|--8-----5-5-5------7-7-7------|


  S S S E.  S S S E.  S S S  S    E  S S S  E.  S S S E.  S S  
-------------------------------|------------------------------|
-------------------------------|------------------------------|
-------------------------------|------------------------------|
--------7---------8------------|----------------------7-------|
----------------------------10-|--L--------12-----------------|
--8-8-8-----8-8-8-----5-5-5----|-----7-7-7------8-8-8-----8-8-|


  S E.  S S S  E.  S S S  S.T T T    S S S E.  S S S E.  S S S  S  
----------------------------------|-------------------------------|
----------------------------------|-------------------------------|
----------------------------------|-------------------------------|
----8-----------------------------|--------7---------8------------|
--------------10---------12-------|----------------------------10-|
--8-----5-5-5------7-7-7----------|--8-8-8-----8-8-8-----5-5-5----|


  E  S S S  E.  S S S E.  S S    S E.  S S S  E.  S S S  S.T T T  
------------------------------|----------------------------------|
------------------------------|----------------------------------|
------------------------------|----------------------------------|
----------------------7-------|----8-----------------------------|
--L--------12-----------------|--------------10---------12-------|
-----7-7-7------8-8-8-----8-8-|--8-----5-5-5------7-7-7----------|


                                                 TP TP  TP TPTP TP  TP TP 
  E  S S S S E  E  S S S S E      E  S S S S  E  S  S   S  S S  S   S  S  
------------------------------|------------------------------------------|
------------------------------|------------------------------------------|
--7----------7--9----------9--|--10----------10--------------------------|
------------------------------|------------------7--7--------------------|
--5----------5--7----------7--|---8-----------8--------10-10-8--8--10-10-|
-----0-0-0-0-------0-0-0-0----|------0-0-0-0-----------------------------|


                                                 TP TP TP TP TP TP   W    
  E  S S S S E  E  S S S S E      E  S S S S  E  S  S  S  S  S  S    E    
------------------------------|------------------------------------------|
------------------------------|------------------------------------------|
--7----------7--9----------9--|--10----------10--------------------------|
------------------------------|------------------7--7--7--7--------<>7~--|
--5----------5--7----------7--|---8-----------8--------------8--8--------|
-----0-0-0-0-------0-0-0-0----|------0-0-0-0-----------------------------|


  E  S S S S Q    S S S S E     E  S S S S E  E  S S S S S S  
-----------------------------|-------------------------------|
-----------------------------|-------------------------------|
-----------------------------|-------------------------------|
--L--------------------------|-------------------------------|
-----------------------------|-------------------------------|
--0--0-0-0-0------0-0-0-0----|-----0-0-0-0----0--0-0-0-0-0-0-|


  E  S S S S Q    S S S S E     E  S S S S E  E  S S S S S S  
-----------------------------|-------------------------------|
-----------------------------|-------------------------------|
-----------------------------|-------------------------------|
-----------------------------|-------------------------------|
-----------------------------|-------------------------------|
--0--0-0-0-0------0-0-0-0----|-----0-0-0-0----0--0-0-0-0-0-0-|


  E  S S S S Q    S S S S E     E  S S S S E  E  S S S S S S  
-----------------------------|-------------------------------|
-----------------------------|-------------------------------|
-----------------------------|-------------------------------|
-----------------------------|-------------------------------|
-----------------------------|-------------------------------|
--0--0-0-0-0-L----0-0-0-0-L--|--L--0-0-0-0-L--0--0-0-0-0-0-0-|


  E  S S S S Q    S S S S E     E  S S S S E  E  S S S S S S  
-----------------------------|-------------------------------|
-----------------------------|-------------------------------|
-----------------------------|-------------------------------|
-----------------------------|-------------------------------|
-----------------------------|-------------------------------|
--0--0-0-0-0-L----0-0-0-0-L--|--L--0-0-0-0-L--0--0-0-0-0-0-0-|


                                                 TP TP  TP TPTP TP  TP TP 
  E  S S S S E  E  S S S S E      E  S S S S  E  S  S   S  S S  S   S  S  
------------------------------|------------------------------------------|
------------------------------|------------------------------------------|
--7----------7--9----------9--|--10----------10--------------------------|
------------------------------|------------------7--7--------------------|
--5----------5--7----------7--|---8-----------8--------10-10-8--8--10-10-|
-----0-0-0-0-------0-0-0-0----|------0-0-0-0-----------------------------|


                                                 TP TP TP TP TP TP  TP TP 
  E  S S S S E  E  S S S S E      E  S S S S  E  S  S  S  S  S  S   S  S  
------------------------------|------------------------------------------|
------------------------------|------------------------------------------|
--7----------7--9----------9--|--10----------10--------------------------|
------------------------------|------------------7--7--7--7--------------|
--5----------5--7----------7--|---8-----------8--------------8--8--10-10-|
-----0-0-0-0-------0-0-0-0----|------0-0-0-0-----------------------------|


  Q     Q    Q    Q      
-----------------------||
-----------------------||
--7~-------------------||
-----------------------||
-----------------------||
-----------------------||




Duration Legend
---------------
W - whole
H - half
Q - quarter
E - 8th
S - 16th
T - 32nd
X - 64th
. - note dotted
|-n-|  - n-tuplets


Tablature Legend
----------------
L - tied note
x - dead note
g - grace note
(n) - ghost note
> - accentuded note
NH - natural harmonic
AH - artificial harmonic
TH - tapped harmonic
SH - semi harmonic
PH - pitch harmonic
h - hammer on
p - pull off
b - bend
br - bendRelease
pb - preBend
pbr - preBendRelease
brb - bendReleaseBend
\n/ - tremolo bar dip
\n - tremolo bar dive
-/n - tremolo bar Release up
/n\ - tremolo bar inverted dip
/n - tremolo bar return
-\n - tremolo bar Release down
S - shift slide
s - legato slide
/ -  slide into from below or out of upwards
\ -  slide into from above or out of downwards
~ - vibrato
W - wide vibrato
tr - trill
TP - tremolo picking
T - tapping
S - slap
P - pop
< - fade in
^ - brush up
v - brush down





Comments


Popular I Killed The Prom Queen tabs & chords
My Best Wishes Bass Tabs
To Kill Tomorrow Bass Tabs
Death Certificate Of A Beauty Queen Tabs
Headfirst From A Hangmans Noose Tabs
Say Goodbye Tabs
Sharks In Your Mouth Tabs
Sharks In Your Mouth 1 Tabs
Upon A Rivers Sky Tabs
Your Shirt Would Look Better With A Columbian Neck-Tie Tabs
Your Shirt Would Look Better With A Columbian Neck-Tie 1 Tabs


Song lyrics



↑ Back to top | Tablatures and chords are parodies/interpretations of the original songs. You may use it for private study, scholarship, research or language learning purposes only
© 2014 AZChords.com Contact us | Privacy policy | DMCA | Add/correct tabs | Request tabs | Top 50 tabs