>
 >
Slain Upon My Faithful Sword

Slain Upon My Faithful Sword Guitar Tabs

I Killed The Prom Queen - Slain Upon My Faithful Sword chords, tabs, tablatures, lyrics

Guitar lessons | Add/correct | Request | Top 50 tabs Artists:  A B C D E F G H I J K L M N O P Q R S T U V W X Y Z 0-9

Slain Upon My Faithful Sword Guitar Tabs – I Killed The Prom Queen

CD, Sheet music, Poster

Do you like Slain Upon My Faithful Sword? Share with your friends now
Tabs
I KILLED THE PROM QUEEN

SLAIN UPON MY FAITHFUL SWORD

B-F#-B-E-G#-C#


L
---------------------------------------------------------------|
---------------------------------------------------------------|
---------------------------------------------------------------|
---------------------------------------------------------------|
-0-------------------------------8-----------10----------------|
-0-|-----------------------------8-----------10---------------- 
R
---------------------------------------------------------------|
---------------------------------------------------------------|
---------------------------------------------------------------|
---770077000088887777--------7-----770077000088887777----------|
---------------------10101010------------------------101010108-|
-0-------------------------------8-----------------------------|
 
                                                    
L
---------------------------------------------------------------|
---------------------------------------------------------------|
---------------------------------------------------------------|
---------------------------------3-----------5-----------------|
-0-------------------------------5-----------7-----------------|
-0-|-----------------------------------------------------------| 
R
------------------------------------------------------------------|
------------------------------------------------------------------|
------------------------------------------------------------------|
---770077000088887777--------7------770077000088887777------------|
---------------------10101010-------------------------101010108---|
0-0------------------------------8-8------------------------------|
* *                              * *                     


L
----------------------------------------------------------------------------|
----------------------------------------------------------------------------|
----------------------------------------------------------------------------|
----------------------------------------------------------------------------|
----------------------------------------------------------------------------|
-0-0-000-000-0-0-000-000-000-000-8-8-888-888-8-8-101010-101010-101010-101010|
 * * *** *** * * *** *** *** *** * * *** *** * *  * * *  * * *  * * *  * * *   
R
------------------------------------------------------------------|
------------------------------------------------------------------|
------------------------------------------------------------------|
---770077000088887777--------7------770077000088887777------------|
---------------------10101010-------------------------101010108---|
0-0------------------------------8-8------------------------------|
* *                              * *                     


L
----------------------------------------------------------------------------|
----------------------------------------------------------------------------|
----------------------------------------------------------------------------|
----------------------------------------------------------------------------|
----------------------------------------------------------------------------|
-0-0-000-000-0-0-000-000-000-000-8-8-888-888-8-8-101010-101010-101010-101010|
 * * *** *** * * *** *** *** *** * * *** *** * *  * * *  * * *  * * *  * * *   
R
------------------------------------------------------------------|
------------------------------------------------------------------|
------------------------------------------------------------------|
---770077000088887777--------7------770077000088887777------------|
---------------------10101010-------------------------101010108---|
0-0------------------------------8-8------------------------------|
* *                              * *                     



L
----------------------------------------------------------------|
----------------------------------------------------------------|
----------------------------------------------------------------|
---------------5555---------------------------5555--------------|
---885588885555----888877778------885588885555----888877775-----|
-0------------------------------8-------------------------------|
 *
R
-----------------------------------------------------------------|
-----------------------------------------------------------------|
-----------------------------------------------------------------|
---770077000088887777--------7-----770077000088887777------------|
---------------------10101010------------------------101010108---|
-0-------------------------------8-------------------------------|
 *           


L
----------------------------------------------------------------|
----------------------------------------------------------------|
----------------------------------------------------------------|
---------------5555---------------------------5555--------------|
---885588885555----888877778------885588885555----888877775-----|
-0------------------------------8-------------------------------|
 
R
----------------------------------------------------------------|
----------------------------------------------------------------|
----------------------------------------------------------------|
---770077000088887777--------7-----77007700001010101088887777---|
---------------------10101010--------------------------------10-|
-0-------------------------------8------------------------------|
 


           
GT.3 PM'D 6TH 0 TRIPLETS
L
-------------------------------------------------------------------|
------------------------------2------------------------------------|
----------------------------3--------------------------------------|
------------------------2-5----------------------------------------|
-5----4----5----1---1-4----------5----4---10---8-|--7/8-8/10-10/12-|
-------------------------------------------------------------------|
                    * * * *      
R
-----------------------------------------------------------------|
-----------------------------------------------------------------|
----------------------------6-7----------------------------------|
------------------------5-8----------------8---7-|---------------|
-8----7----8----4---4-7---------8----7--------------3/5-5/7-7/8--|
-----------------------------------------------------------------|
                    * * * *


L
------------------------------------------------------------------|
------------------------------------------------------------------|
------------------------------------------------------------------|
------------------------------------------------------------------|
-----------------------PH~~~~---------------------7/8-8/10-10/12--|
-000--0-0--000-000-----3--------000--0-0--000-000-----------------|
 ***  * *  *** ***              ***  * *  *** ***                         

R
------------------------------------------------------------------|
------------------------------------------------------------------|
------------------------------------------------------------------|
-----------------------PH~~~~-------------------------------------|
------------------------3-------------------------3/5-5/7-7/8-----|
-000--0-0--000-000-------------000--0-0--000-000------------------|
 ***  * *  *** ***             ***  * *  *** ***                         


L
------------------------------------------------------------------|
------------------------------------------------------------------|
------------------------------------------------------------------|
------------------------------------------------------------------|
-----------------------PH~~~~---------------------12\10-10/8-8\7--|
-000--0-0--000-000-----3--------000--0-0--000-000-----------------|
 ***  * *  *** ***              ***  * *  *** ***                         

R
------------------------------------------------------------------|
------------------------------------------------------------------|
------------------------------------------------------------------|
-----------------------PH~~~~-------------------------------------|
------------------------3-------------------------8\7-7\5-5\3-----|
-000--0-0--000-000-------------000--0-0--000-000------------------|
 ***  * *  *** ***             ***  * *  *** ***                         


L
------------------------------------------------------------------|
------------------------------------------------------------------|
------------------------------------------------------------------|
------------------------------------------------------------------|
-----------------------PH~~~~---------------------7/8-8/10-10/12--|
-000--0-0--000-000-----3--------000--0-0--000-000-----------------|
 ***  * *  *** ***              ***  * *  *** ***                         

R
------------------------------------------------------------------|
------------------------------------------------------------------|
------------------------------------------------------------------|
-----------------------PH~~~~-------------------------------------|
------------------------3-------------------------3/5-5/7-7/8-----|
-000--0-0--000-000-------------000--0-0--000-000------------------|
 ***  * *  *** ***             ***  * *  *** ***                         


L
------------------------------------------------------------------|
------------------------------------------------------------------|
------------------------------------------------------------------|
------------------------------------------------------------------|
-----------------------PH~~~~---------------------12\10-10/8-8\7--|
-000--0-0--000-000-----3--------000--0-0--000-000-----------------|
 ***  * *  *** ***              ***  * *  *** ***                         

R
------------------------------------------------------------------|
------------------------------------------------------------------|
------------------------------------------------------------------|
-----------------------PH~~~~-------------------------------------|
------------------------3-------------------------8\7-7\5-5\3-----|
-000--0-0--000-000-------------000--0-0--000-000------------------|
 ***  * *  *** ***             ***  * *  *** ***                         


L
------------------------------------------------------|
-------------------------------------------------ph--~|
--------------------------------------------------9-V-|
------^-----^----4444333366664444------^-----^--------|
-5---3-6---5-8--------------------5---3-6---5-8-------|
---0-----0-----0--------------------0-----0-----------|
   *     *     *                    *     *      
R
------------------------------------------------------|
------------------------------------------------------|
------------------------------------------------------|
------^-----^----4444333366664444------^-----^--------|
-5---3-6---5-8--------------------5---3-6---5-8--0----|
---0-----0-----0--------------------0-----0------0----|
   *     *     *                    *     *      *

L
--------------------------------------------------------------------|
--------------------------------------------------------------------|
-----^----^-----6666555588886666------^----^------------------------|
-7--5-8--7-10---------------------7--5-8--7-10----------------------|
-------------------------------------------------------------SPH)()-|
---0----0-----0---------------------0----0-----0--3-0-5-0-6-0-3-----|
   *    *     *                     *    *     *    *   *   * 
R
---------------------------------------------------------------------|
---------------------------------------------------------------------|
---------------------------------------------------------------------|
------^-----^----4444333366664444------^-----^-----------------------|
-5---3-6---5-8--------------------5---3-6---5-8----------------SPH)()|
---0-----0-----0--------------------0-----0-----0--3-0-5-0-6-0-3-----|
   *     *     *                    *     *     *    *   *   *


L
--------------------------------------------------------------------|
--------------------------------------------------------------------|
-----^----^-----6666555588886666------^----^------------------------|
-7--5-8--7-10---------------------7--5-8--7-10----------------------|
-------------------------------------------------------------SPH)()-|
---0----0-----0---------------------0----0-----0--3-0-5-0-6-0-3-----|
   *    *     *                     *    *     *    *   *   * 
R
---------------------------------------------------------------------|
---------------------------------------------------------------------|
---------------------------------------------------------------------|
------^-----^----4444333366664444------^-----^-----------------------|
-5---3-6---5-8--------------------5---3-6---5-8----------------SPH)()|
---0-----0-----0--------------------0-----0-----0--3-0-5-0-6-0-3-----|
   *     *     *                    *     *     *    *   *   *

L
----------------------------------------------------------------------|
----------------------------------------------------------------------|
----------------------------------------------------------------------|
----------------------------------------------------------------------|
-0--------------------------------0----------------------------SPH)()-|
-0------------0-0-0-0-------------0-----------0-0--3-0-5-0-6-0-3------|
              * * * *             *           * *    *   *   * 
R
---------------------------------------------------------------------|
---------------------------------------------------------------------|
---------------------------------------------------------------------|
------^-----^-----4---3---6---4--------^-----^-----------------------|
-5---3-6---5-8--------------------5---3-6---5-8----------------SPH)()|
---0-----0-----0----0---0---0---0---0-----0-----0--3-0-5-0-6-0-3-----|
   *     *     *    *   *   *   *   *     *     *    *   *   *

L
----------------------------------------------------------------------|
----------------------------------------------------------------------|
----------------------------------------------------------------------|
----------------------------------------------------------------------|
-0--------------------------------0----------------------------SPH)()-|
-0------------0-0-0-0-------------0-----------0-0--3-0-5-0-6-0-3------|
              * * * *             *           * *    *   *   * 
R
---------------------------------------------------------------------|
---------------------------------------------------------------------|
---------------------------------------------------------------------|
------^-----^-----4---3---6---4--------^-----^-----------------------|
-5---3-6---5-8--------------------5---3-6---5-8----------------SPH)()|
---0-----0-----0----0---0---0---0---0-----0-----0--3-0-5-0-6-0-3-----|
   *     *     *    *   *   *   *   *     *     *    *   *   *
L
----------------------------------------------------------------------|
----------------------------------------------------------------------|
----------------------------------------------------------------------|
----------------------------------------------------------------------|
-0--------------------------------0----------------------------SPH)()-|
-0------------0-0-0-0-------------0-----------0-0--3-0-5-0-6-0-3------|
              * * * *             *           * *    *   *   * 
R
---------------------------------------------------------------------|
---------------------------------------------------------------------|
---------------------------------------------------------------------|
------^-----^-----4---3---6---4--------^-----^-----------------------|
-5---3-6---5-8--------------------5---3-6---5-8----------------SPH)()|
---0-----0-----0----0---0---0---0---0-----0-----0--3-0-5-0-6-0-3-----|
   *     *     *    *   *   *   *   *     *     *    *   *   *

L
-------------------------------------------------------------|
-------------------------------------------------------------|
-------------------------------------------------------------|
-------------------------------------------------------------|
-0--------------------------------0--------------------------|
-0------------0-0-0-0-------------0---------------000-000-00-|
              * * * *             *               *** *** **
R
-------------------------------------------------------------|
-------------------------------------------------------------|
-------------------------------------------------------------|
------^-----^-----4---3---6---4--------^-----^---------------|
-5---3-6---5-8--------------------5---3-6---5-8\-------------|
---0-----0-----0----0---0---0---0---0-----0-------000-000-00-|
   *     *     *    *   *   *   *   *     *       *** *** **


L
-----------------------------------------------------|
-----------------------------------------------------|
-----------------------------------------------------|
-----------------------------------------------------|
-0-----------------------------------8---------------|
-0-----------------------------------8---------------|

R
----------------------------------------------------|
----------------------------------------------------|
----------------------------------------------------|
----------------------------------------------------|
-5-5-5-5-5-5-5-5-5-5-5-5-5-5\3-3-3-3/5-5-5-5-5-5-5--|
----------------------------------------------------|

L
---------------------------------------------------------------|
---------------------------------------------------------------|
---------------------------------------------------------------|
----------------------------------------5----------------------|
---------------3------------------------3----------------------|
---------------3-----------------------------------------------|
R
-------------------------------------------------------------------|
-------------------------------------------------------------------|
-------------------------------------------------------------------|
----------------7-7-7-7-7-7-7-7-7-7-7-8-7-5-5-5-5-5-5-5-5-5-5\2-2/3|
5/7-7-7-7/8-8-8----------------------------------------------------|
-------------------------------------------------------------------|


L
-----------------------------------------------------|
-----------------------------------------------------|
-----------------------------------------------------|
-----------------------------------------------------|
-0-----------------------------------8---------------|
-0-----------------------------------8---------------|

R
----------------------------------------------------|
----------------------------------------------------|
----------------------------------------------------|
----------------------------------------------------|
-5-5-5-5-5-5-5-5-5-5-5-5-5-5\3-3-3-3/5-5-5-5-5-5-5--|
----------------------------------------------------|

L
---------------------------------------------------------------|
---------------------------------------------------------------|
---------------------------------------------------------------|
----------------------------------------5----------------------|
---------------3------------------------3----------------------|
---------------3-----------------------------------------------|
R
--------------------------------------------------------------------------|
--------------------------------------------------------------------------|
------------------------------------------------------------------10101010|
----------------7-7-7-7-7-7-7-7-7-7-7-8-7-101010101212121214141414--------|
5/7-7-7-7/8-8-8-----------------------------------------------------------|
--------------------------------------------------------------------------|

L
----------------------------------------------------------------------------|
----------------------------------------------------------------------------|
----------------------------------------------------------------------------|
----------------------------------------------------------------------------|
----------------------------------------------------------------------------|
-0-0-000-000-0-0-000-000-000-000-8-8-888-888-8-8-101010-101010-101010-101010|
 * * *** *** * * *** *** *** *** * * *** *** * *  * * *  * * *  * * *  * * *   
R
------------------------------------------------------------------|
------------------------------------------------------------------|
------------------------------------------------------------------|
---770077000088887777--------7------770077000088887777------------|
---------------------10101010-------------------------101010108---|
0-0------------------------------8-8------------------------------|
* *                              * *                     


L
----------------------------------------------------------------------------|
----------------------------------------------------------------------------|
----------------------------------------------------------------------------|
----------------------------------------------------------------------------|
----------------------------------------------------------------------------|
-0-0-000-000-0-0-000-000-000-000-8-8-888-888-8-8-101010-101010-101010-101010|
 * * *** *** * * *** *** *** *** * * *** *** * *  * * *  * * *  * * *  * * *   
R
------------------------------------------------------------------|
------------------------------------------------------------------|
------------------------------------------------------------------|
---770077000088887777--------7------770077000088887777------------|
---------------------10101010-------------------------101010108---|
0-0------------------------------8-8------------------------------|
* *                              * *                     



L
----------------------------------------------------------------|
----------------------------------------------------------------|
----------------------------------------------------------------|
---------------5555---------------------------5555--------------|
---885588885555----888877778------885588885555----888877775-----|
-0------------------------------8-------------------------------|
 *
R
-----------------------------------------------------------------|
-----------------------------------------------------------------|
-----------------------------------------------------------------|
---770077000088887777--------7-----770077000088887777------------|
---------------------10101010------------------------101010108---|
-0-------------------------------8-------------------------------|
 *           

L
----------------------------------------------------------------|
----------------------------------------------------------------|
----------------------------------------------------------------|
---------------5555---------------------------5555--------------|
---885588885555----888877778------885588885555----888877775-----|
-0------------------------------8-------------------------------|
 
R
----------------------------------------------------------------|
----------------------------------------------------------------|
----------------------------------------------------------------|
---770077000088887777--------7-----77007700001010101088887777---|
---------------------10101010--------------------------------10-|
-0-------------------------------8------------------------------|
 

L
----------------------------------------------------------------|
----------------------------------------------------------------|
----------------------------------------------------------------|
----------------------------------------------------------------|
-------------------0--------------------------------------------|
-00-00-0-0-000-000-0|--00-00-0-0-000-000---00-00-0-0-0000-0000--|
 ** ** * * *** ***     ** ** * * *** ***   ** ** * * **** ****  
R
---------------------------------------------------------------|
---------------------------------------------------------------|
---------------------------------------------------------------|
---------------------------------------------------------------|
-------------------0-------------------------------------------|
-0-----------------0|---00-00-0-0-000-000---00-00-0-0-0000-0000|
 *                      ** ** * * *** ***   ** ** * * **** **** 

L
----------------------------------------------------|
----------------------------------------------------|
----------------------------------------------------|
----------------------------------------------------|
----------------------------------------------------|
-00-00-0-0-000-000---00-00-0-0-000-000--12\11\------|
 ** ** * * *** ***   ** ** * * *** ***
R
----------------------------------------------------|
----------------------------------------------------|
----------------------------------------------------|
----------------------------------------------------|
----------------------------------------------------|
-00-00-0-0-000-000---00-00-0-0-000-000---8\7\-------|
 ** ** * * *** ***   ** ** * * *** ***


L
-----------------------)-------------------)----|
------11-------------11------11----------11-----|
------14-------------14------14----------14-----|
------------------------------------------------|
------------------------------------------------|
-00-00---0-0-000-000---00-00--0-0-000-000-------|
 ** **   * * *** ***   ** **  * * *** *** 
R
----------------------)-------------------)-----|
-------9-------------9-------9-----------9------|
------12------------12------12----------12------|
------------------------------------------------|
------------------------------------------------|
-00-00---0-0-000-000---00-00--0-0-000-000-------|
 ** **   * * *** ***   ** **  * * *** ***

L
-----------------------)-----------------PH~~--|
------11-------------11------11----------9-----|
------14-------------14------14----------------|
-----------------------------------------------|
-----------------------------------------------|
-00-00---0-0-000-000---00-00--0-0-000-000------|
 ** **   * * *** ***   ** **  * * *** *** 
R
----------------------)-------------------------|
-------9-------------9-------9-------------~~~--|
------12------------12------12------------12PH--|
------------------------------------------------|
------------------------------------------------|
-00-00---0-0-000-000---00-00--0-0-000-000-------|
 ** **   * * *** ***   ** **  * * *** ***

L
-------------------------------------------------------------|
-------------------------------------------------------------|
-------------------------------------------------------------|
-------------------------------------------------------------|
-0--------------------------------0--------------------------|
-0------------0-0-0-0-------------0---------------000-000-00-|
              * * * *             *               *** *** **
R
-------------------------------------------------------------|
-------------------------------------------------------------|
-------------------------------------------------------------|
------^-----^-----4---3---6---4--------^-----^---------------|
-5---3-6---5-8--------------------5---3-6---5-8\-------------|
---0-----0-----0----0---0---0---0---0-----0-------000-000-00-|
   *     *     *    *   *   *   *   *     *       *** *** **


L
-----------------------------------------------------|
-----------------------------------------------------|
-----------------------------------------------------|
-----------------------------------------------------|
-0-----------------------------------8---------------|
-0-----------------------------------8---------------|

R
----------------------------------------------------|
----------------------------------------------------|
----------------------------------------------------|
----------------------------------------------------|
-5-5-5-5-5-5-5-5-5-5-5-5-5-5\3-3-3-3/5-5-5-5-5-5-5--|
----------------------------------------------------|

L
---------------------------------------------------------------|
---------------------------------------------------------------|
---------------------------------------------------------------|
----------------------------------------5----------------------|
---------------3------------------------3----------------------|
---------------3-----------------------------------------------|
R
-------------------------------------------------------------------|
-------------------------------------------------------------------|
-------------------------------------------------------------------|
----------------7-7-7-7-7-7-7-7-7-7-7-8-7-5-5-5-5-5-5-5-5-5-5\2-2/3|
5/7-7-7-7/8-8-8----------------------------------------------------|
-------------------------------------------------------------------|


L
-----------------------------------------------------|
-----------------------------------------------------|
-----------------------------------------------------|
-----------------------------------------------------|
-0-----------------------------------8---------------|
-0-----------------------------------8---------------|

R
----------------------------------------------------|
----------------------------------------------------|
----------------------------------------------------|
----------------------------------------------------|
-5-5-5-5-5-5-5-5-5-5-5-5-5-5\3-3-3-3/5-5-5-5-5-5-5--|
----------------------------------------------------|

L
---------------------------------------------------------------|
---------------------------------------------------------------|
---------------------------------------------------------------|
----------------------------------------5----------------------|
---------------3------------------------3----------------------|
---------------3-----------------------------------------------|
R
--------------------------------------------------------------------------|
--------------------------------------------------------------------------|
------------------------------------------------------------------10101010|
----------------7-7-7-7-7-7-7-7-7-7-7-8-7-101010101212121214141414--------|
5/7-7-7-7/8-8-8-----------------------------------------------------------|
--------------------------------------------------------------------------|


L
--------------------------------------------------------------------10-12-13-15---|
------------------------------------------------------------11-13-14-----------15-|
-/10-9-----/10-9------/10-9-------------------------10-12-14----------------------|
-------7-8-------8-7--------7-5------------10-12-13-------------------------------|
----------------------------------10-12-13----------------------------------------|
----------------------------------------------------------------------------------|

R
---------------------------------------------------------------|
---------------------------------------------------------------|
---------------------------------------------------------------|
-----3---2---0-------3---2---0-------3---2---0-------3---2---0-|
---------------------------------1-1---1---1---1-1-1---1---1---|
-0-0---0---0---0-0-0---0---0---0-------------------------------|
 * *   *   *   * * *   *   *   * * *   *   *   * * *   *   *     

---------------------------------------------------------------|
---------------------------------------------------------------|
---------------------------------------------------------------|
-----3---2---0-------3---2---0-------3---2--3--5--3--2---------|
---------------------------------3-3---3---3--3--3--3--3--5----|
-3-3---3---3----3-3-3--3---3---3-------------------------------|
 * *   *   *    * * *  *   *   * * *   *   *  *  *  *  *

L
---------------------------------------------------------------|
---------------------------------------------------------------|
-----2---0-----------2---0-----------2---0-----------2---0-----|
-------------3---------------3---------------3---------------3-|
---------------------------------1-1---1---1---1-1-1---1---1---|
-0-0---0---0---0-0-0---0---0---0-------------------------------|
 * *   *   *   * * *   *   *   * * *   *   *   * * *   *   *     
R
---------------------------------------------------------------|
---------------------------------------------------------------|
---------------------------------------------------------------|
-----3---2---0-------3---2---0-------3---2---0-------3---2---0-|
---------------------------------1-1---1---1---1-1-1---1---1---|
-0-0---0---0---0-0-0---0---0---0-------------------------------|
 * *   *   *   * * *   *   *   * * *   *   *   * * *   *   *     

L
--------------------------------------------------------------|
--------------------------------------------------------------|
------2---0-----------2---0-----------2---0--2--3--2--0--2----|
-------------3---------------3--------------------------------|
---------------------------------3-3---3---3--3--3--3--3------|
-3-3---3---3----3-3-3--3---3---3------------------------------|
 * *   *   *    * * *  *   *   * * *   *   *  *  *  *  *

R
---------------------------------------------------------------|
---------------------------------------------------------------|
--------------------------------------------------------PH-----|
-----3---2---0-------3---2---0-------3---2--3--5--3--2---------|
---------------------------------3-3---3---3--3--3--3--3-5-----|
-3-3---3---3----3-3-3--3---3---3-------------------------------|
 * *   *   *    * * *  *   *   * * *   *   *  *  *  *  *





Comments


Popular I Killed The Prom Queen tabs & chords
My Best Wishes Bass Tabs
Your Shirt Would Look Better With A Columbian Neck-Tie Bass Tabs
Columbian Necktie Tabs
Death Certificate Of A Beauty Queen Tabs
Deepest Sleep Intro Tabs
Sharks In Your Mouth 6 Tabs
Sleepless Nights And City Lights Intro Tabs
The Paint Brush Killer Tabs
To Kill Tomorrow Intro Tabs
Your Shirt Would Look Better With A Columbian Neck-Tie Tabs


Song lyrics



↑ Back to top | Tablatures and chords are parodies/interpretations of the original songs. You may use it for private study, scholarship, research or language learning purposes only
© 2014 AZChords.com Contact us | Privacy policy | DMCA | Add/correct tabs | Request tabs | Top 50 tabs