» » »

Ignite, Who Sold Out Now? Tabs (ver.1)

Artists:  A B C D E F G H I J K L M N O P Q R S T U V W X Y Z # 

Who Sold Out Now? Tabs (ver.1)

Ignite Tabs
Rating:
0/5 (0 votes)
Who Sold Out Now? lessons Tabs too difficult? Try these video lessons and learn fast
                   Intro
E|-----------------------------------------------------------------------|
B|-----------------------------------------19-20-------------------------|
G|--7-7-x-x-x--7-7-x-x-x--7-7-7-7-7---------------19-21-16----7-7-7-7----|
D|--7-7-x-x-x--7-7-x-x-x--7-7-7-7-7---2-----------------------7-7-7-7----|
A|--5-5-x-x-x--5-5-x-x-x--5-5-5-5-5---2-----------------------5-5-5-5----|
E|------------------------------------0----------------------------------|

E|-----------------------------------------------------------------------|
B|-----------------------------------------------------------------------|
G|---------9-9-9---------9-9-9--9--5-5-5--5-7-7-7------------------------|
D|--2-2-2--9-9-9--2-2-2--9-9-9--9--5-5-5--5-7-7-7------------------------|
A|--2-2-2--7-7-7--2-2-2--7-7-7--7--3-3-3--3-5-5-5------------------------|
E|--0-0-0---------0-0-0--------------------------------------------------|

E|--------------------------------------19-------------------------------|
B|-----------12-10--12-10--12-10-----------20----------------------------|
G|--9-9-9-9-----------------------12----------19-19----------------------|
D|--------------------------------------------------19-------------------|
A|-----------------------------------------------------------------------|
E|-----------------------------------------------------------------------|

   Verse 1
E|--------------------------------------------------------------------------|
B|--------------------------------------------------------------------------|
G|---------9-9-9---------9-9-9--9--5-5-5--5-7-7-7------------------------\--|
D|--2-2-2--9-9-9--2-2-2--9-9-9--9--5-5-5--5-7-7-7---------------------------|x2
A|--2-2-2--7-7-7--2-2-2--7-7-7--7--3-3-3--3-5-5-5---------------------------|
E|--0-0-0---------0-0-0-----------------------------------------------------|

E|-----------------------------------------------------------------------|
B|-----------------------------------------------------------------------|
G|--9-9-9--------------------------9-5-5-5--5-7-7-7----------------------|
D|---------9-9-9-------------------9-5-5-5--5-7-7-7----------------------|
A|---------------10-10-10--5-5-5---7-3-3-3--3-5-5-5----------------------|
E|-----------------------------------------------------------------------|

E|-----------------------------------------------------------------------|
B|-----------------------------------------------------------------------|
G|---------9-9-9---------9-9-9--9--5-5-5--5-7-7-7------------------------|
D|--2-2-2--9-9-9--2-2-2--9-9-9--9--5-5-5--5-7-7-7------------------------|
A|--2-2-2--7-7-7--2-2-2--7-7-7--7--3-3-3--3-5-5-5------------------------|
E|--0-0-0---------0-0-0--------------------------------------------------|

   Chorus 1
E|--------------------------------------------------------------------------|
B|--------------------------------------------------------------------------|
G|--------------------------9-5-5-5--5-7-7-7-----------------------------\--|
D|--2-2--2-2-2--2-2--2-2-2--9-5-5-5--5-7-7-7--------------------------------|x4
A|--2-2--2-2-2--2-2--2-2-2--7-3-3-3--3-5-5-5--------------------------------|
E|--0-0--0-0-0--0-0--0-0-0--------------------------------------------------|

   Verse 2
E|-----------------------------------------------------------------------|
B|-----------------------------------------------------------------------|
G|---------9-9-9---------9-9-9--9--5-5-5--5-7-7-7------------------------|
D|--2-2-2--9-9-9--2-2-2--9-9-9--9--5-5-5--5-7-7-7------------------------|
A|--2-2-2--7-7-7--2-2-2--7-7-7--7--3-3-3--3-5-5-5------------------------|
E|--0-0-0---------0-0-0--------------------------------------------------|

E|-----------------------------------------------------------------------|
B|-----------------------------------------------------------------------|
G|--9-9-9--------------------------9-5-5-5--5-7-7-7----------------------|
D|---------9-9-9-------------------9-5-5-5--5-7-7-7----------------------|
A|---------------10-10-10--5-5-5---7-3-3-3--3-5-5-5----------------------|
E|-----------------------------------------------------------------------|

   Chorus 2
E|--------------------------------------------------------------------------|
B|--------------------------------------------------------------------------|
G|---------9-9-9---------9-9-9--9--5-5-5--5-7-7-7------------------------\--|
D|--2-2-2--9-9-9--2-2-2--9-9-9--9--5-5-5--5-7-7-7---------------------------|x2
A|--2-2-2--7-7-7--2-2-2--7-7-7--7--3-3-3--3-5-5-5---------------------------|
E|--0-0-0---------0-0-0-----------------------------------------------------|

   Bridge
E|-----------------------------------------------------------------------|
B|-----------------------------------------------------------------------|
G|-----------7--------------------------7--------------------------------|
D|--9-9-9-9--7-7--7-9-9-9-9----9-9-9-9--7-7--7-9-9-9-9-------------------|
A|--9-9-9-9--5-7--7-9-9-9-9----9-9-9-9--5-7--7-9-9-9-9-------------------|
E|--7-7-7-7----5--5-7-7-7-7----7-7-7-7----5--5-7-7-7-7-------------------|

E|-----------------------------------------------------------------------|
B|-----------------------------------------------------------------------|
G|-----------7----------------12-12-12-12---7----------------------------|
D|--9-9-9-9--7-7--7-9-9-9-9---12-12-12-12---7-7--------------------------|
A|--9-9-9-9--5-7--7-9-9-9-9---10-10-10-10---5-7--------------------------|
E|--7-7-7-7----5--5-7-7-7-7-------------------5--------------------------|

E|-----------------------------------------------------------------------|
B|-----------------------------------------------------------------------|
G|---------9-9-9---------9-9-9--9--5-5-5--5-7-7-7------------------------|
D|--2-2-2--9-9-9--2-2-2--9-9-9--9--5-5-5--5-7-7-7------------------------|
A|--2-2-2--7-7-7--2-2-2--7-7-7--7--3-3-3--3-5-5-5------------------------|
E|--0-0-0---------0-0-0--------------------------------------------------|

E|--------------------------------------19-------------------------------|
B|-----------12-10--12-10--12-10-----------20----------------------------|
G|--9-9-9-9-----------------------12----------19-19----------------------|
D|--------------------------------------------------19-------------------|
A|-----------------------------------------------------------------------|
E|-----------------------------------------------------------------------|

   Verse  1 ->

   Chorus 1 ->

E|-----------------------------------------------------------------------||
B|-----------------------------------------------------------------------||
G|--9--------------------------------------------------------------------||
D|--9--------------------------------------------------------------------||
A|--7--------------------------------------------------------------------||
E|-----------------------------------------------------------------------||
            

comments powered by Disqus
↑ Back to top | Ignite Tabs for Who Sold Out Now?. Lyrics for acoustic guitar and electric guitar. Tablatures and chords are parodies/interpretations of the original songs. You may use it for private study, scholarship, research or language learning purposes only