» » »

Who Sold Out Now? Bass tabs (ver.1)

Artists:  A B C D E F G H I J K L M N O P Q R S T U V W X Y Z # 

Who Sold Out Now? Bass tabs (ver.1)

Ignite
Rating:
0/5 (0 votes)
Tabs too difficult? Try these video lessons and learn fast.
                Band: Ignite

Intro
G---------------------------------------------------------------------------------|
D------------------0h2-222-2222-----------------------0h2-222-2222----------------|
A-5--5-5--5-5--5----------------33-3-3333-55-5-5555----------------33-3-3333-5555-|
E----------------00---------------------------------00----------------------------|

Part1
G------------------------------|
D----222---222-5---------------|
A---------------33-333-355-555-|
E-000---000--------------------|
a variation:
G-------------------------------|
D---------------5---------------|
A-000000-000000--33-333-355-555-|
E-------------------------------|
use when needed..

Part2
G------------------------|
D------------5-----------|
A-------------3333-35555-|
E-00--00-000-------------|

Part3
 <--------3X---------------------------------------------|
G-------------------I------------------------------------|
D-------------------I-5555--------------5----------------|
A-2222-5----22-2222-I------5--2----------33-333-355-555--|
E-------55-5--------I-------55---------------------------|

Finish:
G----
D----
A----
E-0~-

Order:
Intro 1X
Part1 6X
Part2 4x
Part1 4X
Part3 1X
Part1 5X
Part2 4X
Finish 1X

thats all.. have fun..
  xxSID
            
Tabs too difficult? Try these video lessons and learn fast.


comments powered by Disqus
↑ Back to top | Tablatures and chords are parodies/interpretations of the original songs. You may use it for private study, scholarship, research or language learning purposes only