>
 >
Bailamos

Bailamos Guitar Tabs

Iglesias Enrique - Bailamos chords, tabs, tablatures, lyrics

Guitar lessons | Add/correct | Request | Top 50 tabs Artists:  A B C D E F G H I J K L M N O P Q R S T U V W X Y Z 0-9

Bailamos Guitar Tabs – Iglesias Enrique

CD, Sheet music, Poster

Do you like Bailamos? Share with your friends now
ChordsTabsTabs v2
Artist : Enrique Iglesias

    Here's my attempt to the song though i may not be perfect.

    All i know is that the acoustic part is played by fingerstyle technique
    (though i play using the pick) and two guitars are played.
     
    I used \ to denote sliding, but I also used \\ to denote the same.
    The difference is that \ slides immediately back, while \\ lets 
    sound sustained a bit at that note and then slides down......and vice-versa.

    If you've got any correction or suggestions pl.do tell me. 
    
    
  h : hammer-ons      
  p : pull-offs   	   
  ~ : vibrato  
  / : slide up	
  //: slide up
  \ : slide down  
  \\: slide down
 

Intro : 
e|---------------------------------------------------------
B|---------------------------------------------------------
G|---------------------------------------------------------
D|---------9--10p9--7---9~---7-----------------------------
A|---5/7------------------------8----------7h8p7h8p7-------
E|---------------------------------------------------------

e|---------------------------------------------------------
B|---------------------------------------------------------
G|---------------------------------------------------------
D|---7--9-10--9p7--9~----7---------------------------------
A|----------------------------8-----7--8--7--5--7----------
E|---------------------------------------------------------

e|---------------------------------------------------------
B|-----8---------------------------------------------------
G|--------10--9--7-----------------------------------------
D|--7-------------------10p9--7----------------------------
A|---------------------------------------------------------
E|---------------------------------------------------------

Tonight we dance
I lay my life in your hands
We take the floor
Nothing is forbidden anymore
Don't let the world in outside
Don't let a moment go by
Nothing can stop us to***night

          ***
e|-----------------------------------
B|------9-----9-----9--9\\-----------
G|-----------------------------------
D|---9-----9-----9-----9\\-----------
A|-----------------------------------
E|-----------------------------------

Bailamos, let the rhythm take you over
Bailamos, te quiero amor mio
Bailamos, wanna live this night forever
Bailamos, te quiero amor mio te***quiero

solo :1:  ***
e|------------------------------------------------------------------
B|----9---9---9--9------9-10p9--------------------------------------
G|-----------------------------9------------------------------------
D|--9---9---9--------------------9---9/10\7----7/10--9--10---9-7-7--
A|------------------------------------------------------------------
E|------------------------------------------------------------------

e|------------------------------------------------------------------
B|------------------------------------------------------------------
G|--9-10-9-10----9--------------------------------------------------
D|-----------------10---10h12~------10--9--7--5--7------------------
A|------------------------------------------------------------------
E|------------------------------------------------------------------


Tonight I'm yours
e|------------------------------------
B|------------------------------------     
G|--7h9--7----------------------------
D|-------------10--9------------------
A|------------------------------------
E|------------------------------------


We can make it happen, I'm so sure
e|------------------------------------
B|------------------------------------	  
G|------------------------------------
D|----7----9-10--9--7--9h10~----------
A|--7--7------------------------------
E|------------------------------------


Now I'm letting go
e|------------------------------------
B|------------------------------------   
G|--7/9--7/9--7~----------------------
D|------------------------------------
A|------------------------------------
E|------------------------------------


There is something I think you should know
e|------------------------------------
B|------------------------------------ 
G|------------4--5----?---------------
D|-----6--------------?---------------
A|--7---------------------------------
E|------------------------------------


I won't be leaving your side
We're gonna dance through the night 
e|------------------------------------
B|------------------------------------   
G|------------------------------------     
D|--9-10p9--7-9h10--------------------     
A|------------------------------------
E|------------------------------------


I wanna reach for the stars ...(i couldnt figure out this part)

Bailamos, let the rhythm take you over
Bailamos, te quiero amor mio
e|------------------------------------
B|---------------9-9------------------   
G|------7----10-----------------------     
D|------------------------------------    
A|------------------------------------
E|------------------------------------


Wanna live this night forever
e|------------------------------------
B|------------------------------------    
G|--?-?-?-?-?-------12--10--9-----9---     
D|----------------------------12------     
A|------------------------------------
E|------------------------------------


    te quiero        amor mio 

e|------------------------------------
B|------------------------------------
G|---9--10--9------------9------------  
D|-------------12----12-----12--10----
A|------------------------------------
E|------------------------------------

    te quiero

e|------------------------------------
B|------9-----9-----9--9//12----------
G|------------------------------------
D|---9-----9-----9-----9//12----------
A|------------------------------------
E|------------------------------------


Tonight we dance
Like no tomorrow 

e|------5/7/8-------------------------
B|------------------------------------
G|----5-------------------------------
D|------------------------------------   
A|------------------------------------
E|------------------------------------


If you will stay with me

e|------5/7\5-------------------------
B|------------------------------------   
G|-----5------------------------------
D|------------------------------------  
A|------------------------------------
E|------------------------------------

Te quiero mi amor

Solo :2:   (played on acoustic guitar)
e|------------------------------------------------------------
B|------------------------------------------------------------
G|-------------------------------------------7~-----7/9--7~\--
D|-----7--9--9/10--9--7--9/10---9-----9--10----10-------------
A|--7---------------------------------------------------------
E|------------------------------------------------------------

e|------------------------------------------------------------
B|------------------------------------------------------------
G|--10--9p7--9--10----9p7--9~--10----9--7---------------------
D|------------------------------------------------------------
A|------------------------------------------------------------
E|------------------------------------------------------------

e|------------------------------------------------------------
B|--6/8-------------------------------------------------------
G|-------10--9--7---------------------------------------------
D|-----------------10--7----------------------10~-------------
A|-------------------------8--7--------7--10------------------
E|------------------------------------------------------------

e|-------8--10---10------8--10/12---10~-----------------------
B|---10-------------------------------------------------------
G|------------------------------------------------------------
D|------------------------------------------------------------
A|------------------------------------------------------------
E|------------------------------------------------------------

e|----9p5----7--5-------9p5----7--5------7--5-----------------
B|--5-----5-----------5-----5-----------------8--------------- 
G|----------------------------------------------7--5----------
D|------------------------------------------------------------
A|------------------------------------------------------------
E|------------------------------------------------------------
                          
                       Bailamoo....  
e|------------------------------------------------------------
B|------------------------------------------------------------ ( ..this part is played 
G|--4h5p4---2-------------------------------------------------  on the second guitar..)
D|------------5--3------2-3-2---------------------------------  
A|----------------------------5-3-----------------------------
E|--------------------------------5---------------------------

   ....ooos
e|------------------------------------
B|-------8----------------------------  
G|---------10---9-10-9-7-9------------
D|----7-------------------------------     
A|------------------------------------
E|------------------------------------

Let the rhythm take you over
Bailamos, te quiero amor mio
e|------------------------------------
B|------------------------------------  
G|----------9-10-9-7-9----------------
D|------------------------------------     
A|------------------------------------
E|------------------------------------

Wanna live this night forever
e|--------8--10p8--7-----8p7-5--------
B|------------------------------------  
G|------------------------------------
D|------------------------------------     
A|------------------------------------
E|------------------------------------

te quiero amor mio 
Bailamos......




Nishant Somani, India





Comments


Popular Iglesias Enrique tabs & chords
I Will Survive Chords
Im Your Man Chords
Miente Chords
Rhythm Divine Chords
Addicted Tabs
Be With You 1 Tabs
Dont Turn Off The Lights Tabs
Hero 3 Tabs
Solo En Ti Tabs
Wanna Be With You Tabs


Song lyrics



↑ Back to top | Tablatures and chords are parodies/interpretations of the original songs. You may use it for private study, scholarship, research or language learning purposes only
© 2014 AZChords.com Contact us | Privacy policy | DMCA | Add/correct tabs | Request tabs | Top 50 tabs