» » »

Iggy Pop, I Wanna Be Your Dog Bass tabs (ver.1)

Artists:  A B C D E F G H I J K L M N O P Q R S T U V W X Y Z # 

I Wanna Be Your Dog Bass tabs (ver.1)

Iggy Pop Tabs
 Rating:
4/5 (4 votes)
I Wanna Be Your Dog lessons Tabs too difficult? Try these video lessons and learn fast
                Into Verse
G|-----------------------------------|
D|-----------------------------------|
A|-----------------------------------|
E|--3-3-3-3-2-2-2-2-0-0-0-0----|   1-|3X
CHORUS
G-------------------------------------------------|
D|------------------------------------------------|
A|------------------------------------------------|
E|--3-3-22-2220-0000-3-3-22-2220-0000-------------| 2X

G----------------------------------------------------------------------|
D|---------------------------------------------------------------------|
A|---------------3-3-3-6--2222222222222222333333333333333--------------|
E|-----3-3-3-0---------------------------------------------------------|
Verse
Chorus
DURING SOLO
VERSE
and till the end of the song
verse
            
Submit corrections

comments powered by Disqus
↑ Back to top | Iggy Pop Bass for I Wanna Be Your Dog. Lyrics for acoustic guitar and electric guitar. Tablatures and chords are parodies/interpretations of the original songs. You may use it for private study, scholarship, research or language learning purposes only