» » »

Iggy Pop, Football Tabs (ver.1)

Artists:  A B C D E F G H I J K L M N O P Q R S T U V W X Y Z # 

Football Tabs (ver.1)

Iggy Pop Tabs
Rating:
0/5 (0 votes)
Hard to play? Try these video lessons and learn fast.
                
Intro: Accoustic

B - G - D

1st verse, open chords:

B     G         D
I'm a football baby
B       G         D
Rollin' round the field.
B         G          D
I've been passed and fumbled,
B            G              D
Till I don't know what I feel.

2nd verse, play chords as so:

E |xx245x|
C |x355xx|
G |xx578x|
F#|xx467x|


E     C         G  F# E
Everybody's the same,

Clean electric leak:
|----3----------------|
|---------------------|
|-3h4-----------------|
|---------------------|
|---------------------|
|---------------------|

E           C         G  F# E
They're all footballs too.
E        C        G   F# E
Setting up the big play
E     C         G  F# E
And trying to score.

CHORUS:


It goes like this, first the electric guitar comes in:

|---------------|
|---------------|
|-------2-2---4-|
|-5-5---2-2---4-|
|-5-5---0-0---2-|
|-3-3-----------|

Then repeat:

|----------------------------------------|
|----------------------------------------|
|-4-------7---------7/9-9----9br-9-7-9---|
|-4-------7---------7/9-9----9br-9-7-9\--| x3
|-2-------5---------5/7-7----------------|
|----------------------------------------|

    I'm a foot-ball ba-by

|---------------------|
|---------------------|
|-12---7-----xx7----2-|
|-12---7-----xx7----2-|
|-10---5-----xx5----0-|
|---------------------|

  Run!         Kick!
            

comments powered by Disqus
↑ Back to top | Iggy Pop Tabs for Football. Lyrics for acoustic guitar and electric guitar. Tablatures and chords are parodies/interpretations of the original songs. You may use it for private study, scholarship, research or language learning purposes only