» » »

These Wooden Ideas Tabs (ver.2)

Artists:  A B C D E F G H I J K L M N O P Q R S T U V W X Y Z # 

These Wooden Ideas Tabs (ver.2)

Idlewild
Rating:
0/5 (0 votes)

Hard to play? Try these video lessons and learn fast.
                

iDLEWiLD
These Little Wooden Ideas

Guitar tuned down half a step (Eb, Ab, Db, Gb, Bb, Eb)

(Verse Riff, clean with slight delay/reverb)
It's a better way to feel, don't be real be post modern...
Eb----------------------------------------------------------------|
Bb----------------------------------------------------------------|
Gb-----0---2-2p0------0---2-2p0-------0---2-2p0------0---2b3r2-0--|
Db---2---2----------2---2-------2---2---2----------2---2----------|
Ab-3-------------2----------------0-------------0-----------------|
Eb----------------------------------------------------------------| Play x 4

(Bridge Riff, palm-muted, slight distortion)
I stopped and waited for progress... 
Eb------------------------------------------------------------------| \
Bb------------------------------------------------------------------|  |
Gb------------------------------------------------------------------|  |
Db-3-3-3-3-3-3-3-3-3-3-3-3-3-3-3-3-7-7-7-7-7-7-7-7-7-7-7-7-9-9-9-9--|  |
Ab-3-3-3-3-3-3-3-3-3-3-3-3-3-3-3-3-7-7-7-7-7-7-7-7-7-7-7-7-9-9-9-9--|  |
Eb-1-1-1-1-1-1-1-1-1-1-1-1-1-1-1-1-5-5-5-5-5-5-5-5-5-5-5-5-7-7-7-7--|  |
                                                                       } Play x 2
Eb------------------------------------------------------------------|  |
Bb------------------------------------------------------------------|  |
Gb------------------------------------------------------------------|  |
Db-3-3-3-3-3-3-3-3-3-3-3-3-3-3-3-3-7-7-7-7-7-7-7-7-9-9-9-9-9-9-9-9--|  |
Ab-3-3-3-3-3-3-3-3-3-3-3-3-3-3-3-3-7-7-7-7-7-7-7-7-9-9-9-9-9-9-9-9--|  |
Eb-1-1-1-1-1-1-1-1-1-1-1-1-1-1-1-1-5-5-5-5-5-5-5-5-7-7-7-7-7-7-7-7--| /

(Bridge Organ Riff, played on top of Bridge Rhythm Riff)
I stopped and waited for progress...
Eb-----3---5------8---7---5-7-5-3--|
Bb-5-5---5---5-5----5---5----------|
Gb---------------------------------| Play x 4

(Chorus Rhythm Riff, distortion)
This wooden idea is your method of repetition...
Eb-----------------------------------------------------|
Bb-----------------------------------------------------|
Gb-9--9-9-9-7--5--5-5-5-4------------------------------|
Db-9--9-9-9-7--5--5-5-5-4--5--5-5-5-5--7--7-7-7-7-7-7--|
Ab-7--7-7-7-5--3--3-3-3-2--5--5-5-5-5--7--7-7-7-7-7-7--|
Eb-------------------------3--3-3-3-3--5--5-5-5-5-5-5--| Play x 4

(Chorus Organ Riff, played on top of Chorus Rhythm Riff)
I stopped and waited for progress...
Eb-----3---5------8---7---5-7-5-3--|
Bb-5-----------5-------------------|
Gb---------------------------------| Play x 8

Then Verse Riff  x 4
Then Bridge Rhythm Riff x 2, Bridge Organ Riff x 4
Then Chorus Rhythm Riff x 2, Chorus Organ Riff x 4

(Break, clean, slight reverb)
I bet you don't know how to how to spell contradiction...
Eb------------------------------------: \
Bb-5--5--5-3--------------------------:  |
Gb------------5--5--5-4---------------:  |
Db-----------------------7--7--7-5----:  |
Ab----------------------------------7-:  |
Eb------------------------------------:  |
                                         } Play x 2
:-------------------------------------|  |
:--5--5--5-3--------------------------|  |
:-------------5--5--5-4---------------|  |
:------------------------7--7--7-5--7-|  |
:-------------------------------------|  |
:-------------------------------------| /

Then Chorus Rhythm Riff x 8, Chorus Organ Riff x 16

End on:
Rhythm       Organ
Db-7~-|     Eb-5~-|
Ab-7~-|     Bb----|
Eb-5~-|     Gb----|
            
Hard to play? Try these video lessons and learn fast. | Correct




comments powered by Disqus
↑ Back to top | Tablatures and chords are parodies/interpretations of the original songs. You may use it for private study, scholarship, research or language learning purposes only