» » »

Idlewild, Chandlelier Tabs (ver.1)

Artists:  A B C D E F G H I J K L M N O P Q R S T U V W X Y Z # 

Chandlelier Tabs (ver.1)

Idlewild Tabs
Rating:
0/5 (0 votes)
Chandlelier lessons Tabs too difficult? Try these video lessons and learn fast
                
DETUNE GUITAR 1 SEMITONE TO Eb
    
             Eb G# C# F# Bb Eb
---------------------------------------------------------


There are three sections to this song as well as the intro:
S= slide

Intro:
E (x81010xx) F (x91111xx) C (911111099) 

B----x-------x----x---x----
G---10---s--11---10--10----
D---10---s--11---11--11---- 
A----8---s---9---11--11----
E----x-------x----9---9----

     E       F    C   C
Third time, play C for slightly longer before starting the verse. 
 
Verse: 
B----x-------x----x----9-------]----x-------x---
G---10---s--11---10---10-------]---13---s--11---
D---10---s--11---11---11---X3--]----x---s---x---
A----8---s---9---11---11-------]---11---s---9---
E----x-------x----9----9-------]----x---s---x---
     
     E       F    C    C       (play after playing first part 3 times)
 
CHORUS:
The chorus begins with an A (688566) and then a G (466544) before really starting:

C (X4666X), A (X1333x), G (466544) X3 then play an extended F (244322)

Also after the A in the chorus, over the G, this is played

F (x9x11xx) slide to Eb (x8x10xx)

 
SECTION 3:

Play C (x4666x) then G (466544) X8
 
SEMI SOLO: 
B---x---x---x---x----x--------x----x---x---x--x---x---x---x--x----
G--10---s--11---s---13----s---6---10---s--11--s---8--s--10---8----
D---x---x---x---x----x--------x----x---x---x--x------x---x---x---- X2
A---8---s---9---s---11----s---4----8---s---9--s---6--s---8---6----
E---x---x---x---x----x----x---x----x---x---x--x---x--x---x---x----

    E       F        G        C    E       F      D      E   D

Order: Intro, verse, chorus, verse, chorus, section 3, solo, verse, chorus, section
 3, solo, section 3.
            
Submit corrections

comments powered by Disqus
↑ Back to top | Idlewild Tabs for Chandlelier. Lyrics for acoustic guitar and electric guitar. Tablatures and chords are parodies/interpretations of the original songs. You may use it for private study, scholarship, research or language learning purposes only