» » »

I Like You So Much Better When You're Naked Tabs (ver.1)

Artists:  A B C D E F G H I J K L M N O P Q R S T U V W X Y Z # 

I Like You So Much Better When You're Naked Tabs (ver.1)

Ida Maria
Rating:
0/5 (0 votes)

Hard to play? Try these video lessons and learn fast.
                This Song is very easy i think it sounds like this as a tab not not chord.


Intro
|----------------------------------------------------------------|
|---------2------------------------------------------------------|
|-9---6---2---4--------------------------------------------------| 
|-9---6---2---4--------------------------------------------------| 
|-7---4-------2--------------------------------------------------| 
|----------------------------------------------------------------| 

What the hell do I do that for?
|----------------------------------------------------------------|
|----------------------------------------------------------------|
|-9999-----------------------------------------------------------| 
|-9999-----------------------------------------------------------| 
|-7777-----------------------------------------------------------| 
|----------------------------------------------------------------| 

I like you so much better when you're naked I like me so much better when you're naked
|----------------------------------------------------------------|
|----------------------------------------------------------------|
|-9--------------------------------------------------------------| 
|-9-------------------------------------7-------------------9----| 
|-7-------------------------------------7-------------------9----| 
|---------------------------------------5-------------------7----| 



i hope you like it
            
Hard to play? Try these video lessons and learn fast. | Correct




comments powered by Disqus
↑ Back to top | Tablatures and chords are parodies/interpretations of the original songs. You may use it for private study, scholarship, research or language learning purposes only