» » »

Ida Maria, I Like You So Much Better When You're Naked Bass tabs (ver.2)

Artists:  A B C D E F G H I J K L M N O P Q R S T U V W X Y Z # 

I Like You So Much Better When You're Naked Bass tabs (ver.2)

Ida Maria Tabs
 Rating:
3/5 (6 votes)
I Like You So Much Better When You're Naked lessons Tabs too difficult? Try these video lessons and learn fast
                (Intro)
E--33--------33----------00--33--55--77--88--1010--1212-----|
A----22--55--77--1010--77--55--------------------------1213-|
D-----------------------------------------------------------|
G-----------------------------------------------------------|


E--33--------33----------00--33--55--77--88--1010--1212-----|
A----22--55--77--1010--77--55--------------------------1213-|
D-----------------------------------------------------------|
G-----------------------------------------------------------|


E--33--------33----------00--33--55--77--88--1010--1212-----|
A----22--55--77--1010--77--55--------------------------1213-|
D-----------------------------------------------------------|
G-----------------------------------------------------------|


E--33--------33----------00--33--55--77--88--1010--1212-----|
A----22--55--77--1010--77--55--------------------------1213-|
D-----------------------------------------------------------|
G-----------------------------------------------------------|

It took me ages to figure it out but im shure this is it :)
            
Submit corrections

comments powered by Disqus
↑ Back to top | Ida Maria Bass for I Like You So Much Better When You're Naked. Lyrics for acoustic guitar and electric guitar. Tablatures and chords are parodies/interpretations of the original songs. You may use it for private study, scholarship, research or language learning purposes only