>
 >
Bad Karma 1

Bad Karma 1 Guitar Tabs

Ida Maria - Bad Karma 1 chords, tabs, tablatures, lyrics

Guitar lessons | Add/correct | Request | Top 50 tabs Artists:  A B C D E F G H I J K L M N O P Q R S T U V W X Y Z 0-9

Bad Karma 1 Guitar Tabs – Ida Maria

CD, Sheet music, Poster

Do you like Bad Karma 1? Share with your friends now
TabsTabs v2
Bad Karma  Ida Maria

ORDER:
Intro
Verse
Chorus
Intro
Verse
Chorus 2
Intro
Verse (No guitar)
Chorus 2
Intro

(Chorus 2 is slightly different at "The universe" part)

INTRO
e-----------------------------------------------------|
B-----------------------------------------------------|
G---------------------------------7-------------------|
D-----2-----------------7--8--9-----9--8--7-----------|
A-----2-------------------------------------------10--|
E-----0-----------------------------------------------|

e-------------------------------------------------------------|
B-------------------------------------------------------------|
G---------------------------------7-----------------------8b--|
D-----2-----------------7--8--9-----9----7--------------------|
A-----2-------------------------------------------10----------|
E-----0-------------------------------------------------------|

e-----------------------------------------------------|
B-----------------------------------------------------|
G---------------------------------7-------------------|
D-----2-----------------7--8--9-----9--8--7-----------|
A-----2-------------------------------------------10--|
E-----0-----------------------------------------------|

e-------------------------------------------------------------|
B-------------------------------------------------------------|
G---------------------------------7-----------------------8b--|
D-----2-----------------7--8--9-----9--8--7-------------------|
A-----2-------------------------------------------10----------|
E-----0-------------------------------------------------------|

VERSE
e------------------------------------------------------------------------------|
B------------------------------------------------------------------------------|
G------------------------------------------------------------------------------|
D-----2------------------------------------------------------------------------|
A-----2------------------------------------------------------------------------|
E-----0------------------------------------------------------------------------|

e--------------------------------------------------------------------------|
B--------------------------------------------------------------------------|
G--------------------------------------------------------------------------|
D----------5-------2-------------------------------------------------------|
A----------5-------2-------------------------------------------------------|
E----------3-------0-------------------------------------------------------|

e----------------------------------------------------------------------|
B----------------------------------------------------------------------|
G----------------------------------------------------------------------|
D----------5-------7---------------------------------------------------|
A----------5-------7---------------------------------------------------|
E----------3-------5---------------------------------------------------|

e-----------------------------------------------------------------------|
B-----------------------------------------------------------------------|
G-----------------------------------------------------------------------|
D----------5-------2----------------------------------------------------|
A----------5-------2----------------------------------------------------|
E----------3-------0----------------------------------------------------|

CHORUS
e-------------------------------------------------------------------------------|
B-------------------------------------------------------------------------------|
G--------------6------------6------------6-------------6------------------------|
D---------7----7-------7----7-------7----7--------7----7------------5-----------|
A---------7------------7------------7-------------7-----------------5-----------|
E---------5------------5------------5-------------5-----------------3b----------|

e---------------------------------------------------------------|
B---------------------------------------------------------------|
G------------4------------4------------4-------------4----------|
D-------2----2-------2----2-------2----2--------2----2----------|
A-------2------------2------------2-------------2---------------|
E-------0------------0------------0-------------0---------------|

The universe....
e-----------------------------------------------------------------------------------------|
B--------------------------------------------------------------------2--------------------|
G-----------5---3--5--------------------------6----------------3-----------------------4--|
D--------3-------------------------7----5--------------------------------------1----4-----|
A----------------------------------------------------------1-----------------2------------|
E-------------------------------5---------------------2-----------------------------------|

INTRO PART
e-----------------------------------------------------|
B-----------------------------------------------------|
G---------------------------------7-------------------|
D-----2-----------------7--8--9-----9--8--7-----------|
A-----2-------------------------------------------10--|
E-----0-----------------------------------------------|

e-------------------------------------------------------------|
B-------------------------------------------------------------|
G---------------------------------7-----------------------8b--|
D-----02-----------------7--8--9-----9----7-------------------|
A-----2-------------------------------------------10----------|
E-----0-------------------------------------------------------|

e-----------------------------------------------------|
B-----------------------------------------------------|
G---------------------------------7-------------------|
D-----2-----------------7--8--9-----9--8--7-----------|
A-----2-------------------------------------------10--|
E-----0-----------------------------------------------|

e------------------------------------------------------------------|
B------------------------------------------------------------------|
G---------------------------------7----------------------------8b--|
D-----2-----------------7--8--9-----9----7-------------------------|
A-----2-------------------------------------------10---------------|
E-----0------------------------------------------------------------|

VERSE
e----------------------------------------------------------------------------|
B----------------------------------------------------------------------------|
G----------------------------------------------------------------------------|
D----2-----------------------------------------------------------------------|
A----2-----------------------------------------------------------------------|
E----0-----------------------------------------------------------------------|

e--------------------------------------------------------------------------|
B--------------------------------------------------------------------------|
G--------------------------------------------------------------------------|
D----------5-------2-------------------------------------------------------|
A----------5-------2-------------------------------------------------------|
E----------3-------0-------------------------------------------------------|

e---------------------------------------------------------------------------|
B---------------------------------------------------------------------------|
G---------------------------------------------------------------------------|
D----------5-------7--------------------------------------------------------|
A----------5-------7--------------------------------------------------------|
E----------3-------5--------------------------------------------------------|

e------------------------------------------------------------------------------|
B------------------------------------------------------------------------------|
G------------------------------------------------------------------------------|
D----------5-------2-----------------------------------------------------------|
A----------5-------2-----------------------------------------------------------|
E----------3-------0-----------------------------------------------------------|

CHORUS 2
e-------------------------------------------------------------------------------|
B-------------------------------------------------------------------------------|
G--------------6------------6------------6-------------6------------------------|
D---------7----7-------7----7-------7----7--------7----7------------5-----------|
A---------7------------7------------7-------------7-----------------5-----------|
E---------5------------5------------5-------------5-----------------3b----------|

e-------------------------------------------------------------------------------------------|
B-------------------------------------------------------------------------------------------|
G------------4------------4------------4-------------4--------------------------------------|
D-------2----2-------2----2-------2----2--------2----2--------------------------------------|
A-------2------------2------------2-------------2-------------------------------------------|
E-------0------------0------------0-------------0-------------------------------------------|
e-------------------------------------------------------------------------------------------|
B--------------------------------------------------------5------5---------------------------|
G---------5---3---5------------------------6-----------6-----6-----6---------------------4--|
D------3-------------------------7----5------------------------------------------1----4-----|
A------------------------------------------------------------------------------2------------|
E-----------------------------5----------------------2--------------------------------------|

INTRO PART
e-----------------------------------------------------|
B-----------------------------------------------------|
G---------------------------------7-------------------|
D-----2-----------------7--8--9-----9--8--7-----------|
A-----2-------------------------------------------10--|
E-----0-----------------------------------------------|

e-------------------------------------------------------------|
B-------------------------------------------------------------|
G---------------------------------7-----------------------8b--|
D-----2-----------------7--8--9-----9----7--------------------|
A-----2-------------------------------------------10----------|
E-----0-------------------------------------------------------|

e-----------------------------------------------------|
B-----------------------------------------------------|
G---------------------------------7-------------------|
D-----2-----------------7--8--9-----9--8--7-----------|
A-----2-------------------------------------------10--|
E-----0-----------------------------------------------|

e--------------------------------------------------------------|
B--------------------------------------------------------------|
G---------------------------------7------------------------8b--|
D-----2-----------------7--8--9-----9----7---------------------|
A-----2-------------------------------------------10-----------|
E-----0--------------------------------------------------------|

(NO GUITAR VERSE

CHORUS 2
e-------------------------------------------------------------------------------|
B-------------------------------------------------------------------------------|
G--------------6------------6------------6-------------6------------------------|
D---------7----7-------7----7-------7----7--------7----7------------5-----------|
A---------7------------7------------7-------------7-----------------5-----------|
E---------5------------5------------5-------------5-----------------3b----------|

e---------------------------------------------------------------|
B---------------------------------------------------------------|
G------------4------------4------------4-------------4----------|
D-------2----2-------2----2-------2----2--------2----2----------|
A-------2------------2------------2-------------2---------------|
E-------0------------0------------0-------------0---------------|

The universe....
e-------------------------------------------------------------------------------------------|
B--------------------------------------------------------5------5---------------------------|
G---------5---3---5------------------------6-----------6-----6-----6---------------------4--|
D------3-------------------------7----5------------------------------------------1----4-----|
A------------------------------------------------------------------------------2------------|
E-----------------------------5----------------------2--------------------------------------|

INTRO PART
e-----------------------------------------------------|
B-----------------------------------------------------|
G---------------------------------7-------------------|
D-----2-----------------7--8--9-----9--8--7-----------|
A-----2-------------------------------------------10--|
E-----0-----------------------------------------------|

e-------------------------------------------------------------|
B-------------------------------------------------------------|
G---------------------------------7-----------------------8b--|
D-----2-----------------7--8--9-----9----7--------------------|
A-----2-------------------------------------------10----------|
E-----0-------------------------------------------------------|

e-----------------------------------------------------|
B-----------------------------------------------------|
G---------------------------------7-------------------|
D-----2-----------------7--8--9-----9--8--7-----------|
A-----2-------------------------------------------10--|
E-----0-----------------------------------------------|

e--------------------------------------------------------------|
B--------------------------------------------------------------|
G---------------------------------7------------------------8b--|
D-----2-----------------7--8--9-----9----7---------------------|
A-----2-------------------------------------------10-----------|
E-----0--------------------------------------------------------|





Comments


Popular Ida Maria tabs & chords
Oh My God Bass Tabs
Drive Away My Heart Tonight Chords
I Like You So Much Better When You're Naked 1 Chords
Keep Me Warm Chords
Oh My God 1 Chords
Stella And God Chords
Oh My God Tabs
Louie Ukulele
Queen Of The World Ukulele
Quite Nice People Ukulele


Song lyrics



↑ Back to top | Tablatures and chords are parodies/interpretations of the original songs. You may use it for private study, scholarship, research or language learning purposes only
© 2014 AZChords.com Contact us | Privacy policy | DMCA | Add/correct tabs | Request tabs | Top 50 tabs