>
 >
So This Is My Future

So This Is My Future Guitar Tabs

Ice Nine Kills - So This Is My Future chords, tabs, tablatures, lyrics

Guitar lessons | Add/correct | Request | Top 50 tabs Artists:  A B C D E F G H I J K L M N O P Q R S T U V W X Y Z 0-9

So This Is My Future Guitar Tabs – Ice Nine Kills

CD, Sheet music, Poster

Do you like So This Is My Future? Share with your friends now
Tabs
So This Is My Future by Ice Nine Kills


Half Step Drop D (C#) Tuning.

Rhythm Guitar.
Lead Guitar.

Key

(*) Pinch Harmonic
(X) Mutes.
() Palm Mutes.
(~) Hold Note.
(/) Slide

---------------------------------------------------------------------------------------------

Intro (0:00 - 0:09)

D#:------------5-----0~---0--------------5-----0~---0-------|
A#:--------6-----6------6---6~~~~----6-----6------6---6~~~~-|
F#:------7---7-----7---------------7---7-----7--------------|
C#:-0~~~----------------------------------------------------|
G#:-0~~~----------------------------------------------------|
C#:-0~~~----------------------------------------------------|

D#:------------5-----0~---0--------------|
A#:--------6-----6------6---6~~~~--------|
F#:------7---7-----7---------------------|
C#:-0~~~---------------------------------|
G#:-0~~~-------------------------------1-|
C#:-0~~~---------------------------1-3---|


Verse 1 (0:10 - 0:44)

D#:-----------------------------------------------------------------------------|
A#:-----------------------------------------------------------------------------|
F#:-----------------------------------------------------------------------------|
C#:-00000----000----000-000--1-000--001-0---3-1-0--8888-7777------------00001-0-|
G#:-00000----000----000-000--1-000--001-0---3-1-0------------8888-6666--00001-0-|
C#:-00000----000----000-000--1-000--001-0---3-1-0-----------------------00001-0-|
\-:-.....----...----...-...----...--..-------------....-....-....-....--....----|

D#:--------------------------------------------------------------------|
A#:--------------------------------------------------------------------|
F#:--------------------------------------------------------------------|
C#:-00000----000----000-000--1-000--001-0---3-1-0--8888-7777-----------|
G#:-00000----000----000-000--1-000--001-0---3-1-0------------8888-6666-|
C#:-00000----000----000-000--1-000--001-0---3-1-0----------------------|
\-:-.....----...----...-...----...--..-------------....-....-....-....-|

D#:--------------------------------------------------------------------------------------|
A#:--------------------------------------------------------------------------------------|
F#:--------------------------------------------------------------------------------------|
C#:-5555555555555555------7777-8888-5555------------------10101010-8888-10101010-7777----|
G#:------------------8888----------------5555555555555555--------------------------------|
C#:--------------------------------------------------------------------------------------|
\-:-................-....-....-....-....-................-(Slowly release the palm mute)-|

(0:29)

D#:-------------------------------|
A#:-------------------------------|
F#:-------------------------------|
C#:-5-5-5-5-5-5-5-5------------5*-|
G#:-5-5-5-5-5-5-5-5--3------------|
C#:-5-5-5-5-5-5-5-5----5-0-5-0----|

D#:-----------------------------------------------------------------|
A#:-----------------------------------------------------------------|
F#:---------------------------------------------------------------5-|
C#:-000-000-00000000------------------0000--000-00-00---------5-----|
G#:-000-000-00000000-5875875-4754754--0000--000-00-00---------------|
C#:-000-000-00000000------------------0000--000-00-00-0-5-0-0---0---|

D#:---------------------------10-13-10--------------9-12-9----------------------------------------|
A#:------------------------10----------10---------9--------9--------------------------------------|
F#:---------------------10----------------10----9------------9------------------------------------|
C#:-000-000-00000000-12----------------------11-----------------00--000-00-00---------------------|
G#:-000-000-00000000--------------------------------------------00--000-00-00---------------------|
C#:-000-000-00000000--------------------------------------------00--000-00-00--8888-7777-3333/7---|
\-:-...-...-........--------------------------------------------..--...-..-..--....-....-......---|


Chorus 1 - (0:44 - 1:08)

D#:--------------------------------------------------------------------8-8-8-8-|
A#:---------------------(Tens, not ones)-------------------------------8-8-8-8-|
F#:-------------------------------------------7-7-7-7-7-7-7-7--7-------5-5-5-5-|
C#:-8-8-8-8-8-8-8-8--10-10-10-10-10-10-10-10--7-7-7-7-7-7-7-7--7-------5-5-5-5-|
G#:-8-8-8-8-8-8-8-8--10-10-10-10-10-10-10-10--5-5-5-5-5-5-5-5--5-7-8-7---------|
C#:-8-8-8-8-8-8-8-8--10-10-10-10-10-10-10-10-----------------------------------|

D#:-----------------------------------------------------------8--8--8-|
A#:-----------------------------------------------------------8--8--8-|
F#:-----------------------------------------------------------5--5--5-|
C#:-8-8-8-8-8-8-8-8--5-5-5-5-5-5-5-5--0000-00-0---0-0--000-0--5--5--5-|
G#:-8-8-8-8-8-8-8-8--5-5-5-5-5-5-5-5--0000-00-0---0-0--000-0----------|
C#:-8-8-8-8-8-8-8-8--5-5-5-5-5-5-5-5--0000-00-0---0-0--000-0----------|

D#:--------------------------------------------------------------------8--8--8-|
A#:--------------------------------------------------------------------8--8--8-|
F#:--------------------------------------------------------------------5--5--5-|
C#:-8--8--8--8--8--8---3--3--3--3--3--3---0--0--0--0--0--0---0--0--0---5--5--5-|
G#:-8--8--8--8--8--8---3--3--3--3--3--3---0--0--0--0--0--0---0--0--0-----------|
C#:-8--8--8--8--8--8---3--3--3--3--3--3---0--0--0--0--0--0---0--0--0-----------|

D#:------------------------------------------------------------|
A#:------------------------------------------------------------|
F#:------------------------------------------------------------|
C#:-8-8-8-8-8-8-8-8--5-5-5-5-5-5-5-5--0000-00-0---0-0--000-000-|
G#:-8-8-8-8-8-8-8-8--5-5-5-5-5-5-5-5--0000-00-0---0-0--000-000-|
C#:-8-8-8-8-8-8-8-8--5-5-5-5-5-5-5-5--0000-00-0---0-0--000-000-|
\-:-----------------------------------....-..-.---.-.--...-...-|

Verse 2 (1:08 - 1:45)

D#:-0~~~~~~~~~~~~~~~~~~~~~~~~~~~-|
A#:-0~~~~~~~~~~~~~~~~~~~~~~~~~~~-|
F#:-0~~~~~~~~~~~~~~~~~~~~~~~~~~~-|
C#:-0~~~~~~~~~~~~~~~~~~~~~~~~~~~-|
G#:-0~~~~~~~~~~~~~~~~~~~~~~~~~~~-|
C#:-0~~~~~~~~~~~~~~~~~~~~~~~~~~~-|

(1:20)

D#:----------------------------------------------------------------------------|
A#:----------------------------------------------------------------------------|
F#:----------------------------------------------------------------------------|
C#:----------------------------------------------------------------------------|
G#:---3------1------4-----------------------3------1------4------1111----------|
C#:-0---5--0---0--0---0--0-1-3--003-003---0---5--0---0--0---5555------11111111-|
\-:-.------.------.------.------..--..----.------.------.---....-....-........-|

D#:-------------------------------------------------------------------------|
A#:-------------------------------------------------------------------------|
F#:-------------------------------------------------------------------------|
C#:-------------------------------------------------------------------------|
G#:---3------1------4-----------------------3------1------4-1111-0000-------|
C#:-0---5--0---0--0---0--0-1-3--003-003---0---5--0---0--0-------------11111-|
\-:-.------.------.------.------..--..----.------.------.---....-....-.....-|

(1:32)

D#:-----------------------------------------------------------------------------|
A#:-----------------------------------------------------------------------------|
F#:-----------------------------------------------------------------------------|
C#:-00000----000----000-000--1-000--001-0---3-1-0--8888-7777--------------------|
G#:-00000----000----000-000--1-000--001-0---3-1-0------------8888-6666--00001-0-|
C#:-00000----000----000-000--1-000--001-0---3-1-0-----------------------00001-0-|
\-:-.....----...----...-...----...--..-------------....-....-....-....--....----|

D#:---------------------------------------------------|
A#:---------------------------------------------------|
F#:---------------------------------------------------|
C#:-00000~~~~000~~~~000~000~~1-000~~001-0~~~3-1-0-----|
G#:-00000~~~~000~~~~000~000~~1-000~~001-0~~~3-1-0-----|
C#:-00000~~~~000~~~~000~000~~1-000~~001-0~~~3-1-0-----|
\-:-.....----...----...-...----...--..--.-------------|


Chorus 2 - (1:45 - 2:09)

D#:--------------------------------------------------------------------8-8-8-8-|
A#:---------------------(Tens, not ones)-------------------------------8-8-8-8-|
F#:-------------------------------------------7-7-7-7-7-7-7-7--7-------5-5-5-5-|
C#:-8-8-8-8-8-8-8-8--10-10-10-10-10-10-10-10--7-7-7-7-7-7-7-7--7-------5-5-5-5-|
G#:-8-8-8-8-8-8-8-8--10-10-10-10-10-10-10-10--5-5-5-5-5-5-5-5--5-7-8-7---------|
C#:-8-8-8-8-8-8-8-8--10-10-10-10-10-10-10-10-----------------------------------|

D#:-----------------------------------------------------------8--8--8-|
A#:-----------------------------------------------------------8--8--8-|
F#:-----------------------------------------------------------5--5--5-|
C#:-8-8-8-8-8-8-8-8--5-5-5-5-5-5-5-5--0000-00-0---0-0--000-0--5--5--5-|
G#:-8-8-8-8-8-8-8-8--5-5-5-5-5-5-5-5--0000-00-0---0-0--000-0----------|
C#:-8-8-8-8-8-8-8-8--5-5-5-5-5-5-5-5--0000-00-0---0-0--000-0----------|

D#:--------------------------------------------------------------------8--8--8-|
A#:--------------------------------------------------------------------8--8--8-|
F#:--------------------------------------------------------------------5--5--5-|
C#:-8--8--8--8--8--8---3--3--3--3--3--3---0--0--0--0--0--0---0--0--0---5--5--5-|
G#:-8--8--8--8--8--8---3--3--3--3--3--3---0--0--0--0--0--0---0--0--0-----------|
C#:-8--8--8--8--8--8---3--3--3--3--3--3---0--0--0--0--0--0---0--0--0-----------|

D#:------------------------------------------------------------|
A#:------------------------------------------------------------|
F#:------------------------------------------------------------|
C#:-8-8-8-8-8-8-8-8--5-5-5-5-5-5-5-5----------------------0~~~-|
G#:-8-8-8-8-8-8-8-8--5-5-5-5-5-5-5-5--00------00----------0~~~-|
C#:-8-8-8-8-8-8-8-8--5-5-5-5-5-5-5-5--00-1-1--00-1-1-1----0~~~-|
\-:-----------------------------------..------..---------------|

Bridge/Breakdown - (2:09 - 2:39)


D#:-------------------------------------------------------------------|
A#:-------------------------------------------------------------------|
F#:-------------------------------------------------------------------|
C#:-------------------------------------------------------------------|
G#:-555555555555555555555555-88888888---------------------------------|
C#:-----------------------------------88888888888888-7777777777777777-|

D#:----------------------------------------------------------------------|
A#:----------------------------------------------------------------------|
F#:----------------------------------------------------------------------|
C#:----------------------------------88888888-55555555----------77777777-|
G#:-44444444444444444444444444444444-------------------88888888----------|
C#:----------------------------------------------------------------------|

D#:-------------------------------------------------------------------|
A#:-------------------------------------------------------------------|
F#:-------------------------------------------------------------------|
C#:----------------------------------55555555555555555555555555555555-|
G#:-88888888888888888888888888888888----------------------------------|
C#:-------------------------------------------------------------------|

D#:----------------------------------------------------------------------|
A#:----------------------------------------------------------------------|
F#:----------------------------------------------------------------------|
C#:----------------------------------88888888-55555555----------77777777-|
G#:-77777777777777777777777777777777-------------------88888888----------|
C#:----------------------------------------------------------------------|

(Repeat X2)


Pre Chorus - (2:39 - 2:51)

D#:------------5-----0~---0--------------5-----0~---0-|
A#:--------6-----6------6---6~~~~----6-----6------6---|
F#:------7---7-----7---------------7---7-----7--------|
C#:-0~~~----------------------------------------------|
G#:-0~~~----------------------------------------------|
C#:-0~~~----------------------------------------------|


D#:---------------------------------------------------------------------------|
A#:---------------------------------------------------------------------------|
F#:---------------------------------------------------------------------------|
C#:---------------------------------------------------------------------------|
G#:-----------------------0000-1111-----------------------3333-1111-3333-0000-|
C#:-5555555555555555-3333-----------5555-0000000000000000---------------------|
\-:-................-....-....-....-....-................-....-....-....-....-|


Chorus 3 - (2:51 - 3:12)

D#:--------------------------------------------------------------------8-8-8-8-|
A#:---------------------(Tens, not ones)-------------------------------8-8-8-8-|
F#:-------------------------------------------7-7-7-7-7-7-7-7--7-------5-5-5-5-|
C#:-8-8-8-8-8-8-8-8--10-10-10-10-10-10-10-10--7-7-7-7-7-7-7-7--7-------5-5-5-5-|
G#:-8-8-8-8-8-8-8-8--10-10-10-10-10-10-10-10--5-5-5-5-5-5-5-5--5-7-8-7---------|
C#:-8-8-8-8-8-8-8-8--10-10-10-10-10-10-10-10-----------------------------------|

D#:-----------------------------------------------------------8--8--8-|
A#:-----------------------------------------------------------8--8--8-|
F#:-----------------------------------------------------------5--5--5-|
C#:-8-8-8-8-8-8-8-8--5-5-5-5-5-5-5-5--0000-00-0---0-0--000-0--5--5--5-|
G#:-8-8-8-8-8-8-8-8--5-5-5-5-5-5-5-5--0000-00-0---0-0--000-0----------|
C#:-8-8-8-8-8-8-8-8--5-5-5-5-5-5-5-5--0000-00-0---0-0--000-0----------|

D#:---------------------------------------------------------------------8-----8-|
A#:---------------------------------------------------------------------8-----8-|
F#:---------------------------------------------------------------------5-----5-|
C#:-8--8--8--8---------3--3--3--3---------0--0--0--0------0-0-0--0--0---5-----5-|
G#:-8--8--8--8---------3--3--3--3---------0--0--0--0------0-0-0--0--0-----------|
C#:-8--8--8--8---------3--3--3--3---------0--0--0--0------0-0-0--0--0-----------|

D#:----------------------------------|
A#:----------------------------------|
F#:----------------------------------|
C#:-8-8-8-8-8-8-8-8--5-5-5-5-5-5-5-5-|
G#:-8-8-8-8-8-8-8-8--5-5-5-5-5-5-5-5-|
C#:-8-8-8-8-8-8-8-8--5-5-5-5-5-5-5-5-|


Outro - (3:12 - 3:16)

D#:--------------------------|
A#:--------------------------|
F#:--------------------------|
C#:---------------------0~~~-|
G#:-00------00----------0~~~-|
C#:-00-1-1--00-1-1-1----0~~~-|
\-:-..------..---------------|


OTHER GUITAR SECTIONS


CHORUS (LEAD) (It's the same for every chorus)

D#:----13-13----13-13----13--12-------12-------12----|
A#:-10-------10-------10--------10-10----10-10----10-|
F#:--------------------------------------------------| (x3)
C#:--------------------------------------------------|
G#:--------------------------------------------------|
C#:--------------------------------------------------|

D#:-------0~--------------0~-------|
A#:---6------6---6----6------6---6-|
F#:-7---7------7----7---7------7---|
C#:--------------------------------|
G#:--------------------------------|
C#:--------------------------------|

D#:-13----13----13----13-----12----12----12----12-----10----10----10----10-----10----10----|
A#:----10----10----10----10-----10----10----10----10-----10----10----10----10-----10----10-|
F#:----------------------------------------------------------------------------------------|
C#:----------------------------------------------------------------------------------------|
G#:----------------------------------------------------------------------------------------|
C#:----------------------------------------------------------------------------------------|

D#:----13-13----13-13----13--12-------12-------12~-|
A#:-10-------10-------10--------10-10----10-10-----|
F#:------------------------------------------------|
C#:------------------------------------------------|
G#:------------------------------------------------|
C#:------------------------------------------------|


BRIDGE/BREAKDOWN (RYHTHM GUITAR) - (2:09 - 2:39)

D#:------------------------------------|
A#:------------------------------------|
F#:------------------------------------|
C#:------------------------------------| (x4)
G#:-0000-0---0000-0--000-000--0-0-0----|
C#:-0000-0---0000-0--000-000--0-0-0----|
\-:-....-.---....-.--...-...--.-.-.----|

(2:24)

D#:------------------------------------|
A#:------------------------------------|
F#:------------------------------------|
C#:------------------------------------| (x4)  - This part is lightly palm muted.
G#:-0000~0~~~0000~0~~000~000~~0~0~0~~~-|
C#:-0000~0~~~0000~0~~000~000~~0~0~0~~~-|
\-:-....-.---....-.--...-...--.-.-.----|


The rest of the missing parts are just repeats of the tab. (For example the Intro Lead Guitar bit)

Hope this is helpful to you guys. I enjoyed making it and especially playing it.

---------------------------------------------------------------------------------------------

IMPORTANT!

THIS IS HOW I PLAY IT ON THE VIDEO.

If you want to watch my cover of this song copy and paste the link below.

                    V    V    V    V    V





Comments


Popular Ice Nine Kills tabs & chords
The Simple Act Of Giving Up Chords
The Simple Act Of Giving Up 1 Chords
What I Really Learned In Study Hall Chords
Build A Bridge And Jump Off Intro Tabs
Cinder Blocks And Thank You Knots 2 Tabs
Family Unties Tabs
Last Words Intro 2 Tabs
The Greatest Story Ever Told Intro Tabs
The Simple Act Of Giving Up Tabs
What I Should Have Learned In Study Hall Ukulele


Song lyrics



↑ Back to top | Tablatures and chords are parodies/interpretations of the original songs. You may use it for private study, scholarship, research or language learning purposes only
© 2014 AZChords.com Contact us | Privacy policy | DMCA | Add/correct tabs | Request tabs | Top 50 tabs