>
 >
The Comming Curse

The Comming Curse Bass Tabs

Iced Earth - The Comming Curse chords, tabs, tablatures, lyrics

Guitar lessons | Add/correct | Request | Top 50 tabs Artists:  A B C D E F G H I J K L M N O P Q R S T U V W X Y Z 0-9

The Comming Curse Bass Tabs – Iced Earth

CD, Sheet music, Poster

Do you like The Comming Curse? Share with your friends now
Bass Tabs
Listen 4 timing

F#||------|------|------|------|------|------|------|------|------|------|
C#||------|------|------|------|------|------|------|------|------|------|
G#||------|------|------|------|------|------|------|------|------|------|
D#||------|------|------|------|------|------|------|------|------|------|


                                                                             
------|------|------|------|------|------|------|------|------|------|------|
------|------|------|------|------|------|------|------|------|------|------|
------|------|------|------|------|------|------|------|------|------|------|
------|------|------|------|------|------|------|------|------|------|------|


                                                                    
------|------|--------------------------|--------------------------|
------|------|-----------2--2--2--------|-----3--------3--2--0--0--|
------|------|--0--0--0-----------0--0--|--0-----0--0--------------|
------|------|--------------------------|--------------------------|


                                                      
--------------------------|--------------------------|
-----------0--2--2--------|--------------------------|
--3--3--3-----------0--0--|--0--0--0--0--0--0--0--0--|
--------------------------|--------------------------|


                                                      
--------------------------|--------------------------|
-----------2--2--2--------|-----3--------3--2--0--0--|
--0--0--0-----------0--0--|--0-----0--0--------------|
--------------------------|--------------------------|


                                                      
--------------------------|--------------------------|
-----------0--2--2--------|--------------------------|
--3--3--3-----------0--0--|--0--0--0--0--0--0--0--0--|
--------------------------|--------------------------|


                                                                              
--------------------------|------------------------|-------------------------|
--------------------------|------------------------|-------------------------|
--------------------------|------------------------|-------------------------|
--3--3--3--3--3--3--6--6--|--6--6--6--6--8----8----|--6--5--3--5----5--5--5--|


                                                                               
--------------------------|--------------------------|------------------------|
--------------------------|--------------------------|------------------------|
--------------------------|--------------------------|------------------------|
--5--5--5--5--5--5--5--5--|--3--3--3--3--3--3--6--6--|--6--6--6--6--8----8----|


                                                                                
-------------------------|--------------------------|--------------------------|
-------------------------|--------------------------|-----------2--2--2--------|
-------------------------|--------------------------|--0--0--0-----------0--0--|
--6--5--3--5----5--5--5--|--5--5--5--5--5--5--5--5--|--------------------------|


                                                      
--------------------------|--------------------------|
-----3--------3--2--0--0--|-----------0--2--2--------|
--0-----0--0--------------|--3--3--3-----------0--0--|
--------------------------|--------------------------|


                                                      
--------------------------|--------------------------|
--------------------------|-----------2--2--2--------|
--0--0--0--0--0--0--0--0--|--0--0--0-----------0--0--|
--------------------------|--------------------------|


                                                      
--------------------------|--------------------------|
-----3--------3--2--0--0--|-----------0--2--2--------|
--0-----0--0--------------|--3--3--3-----------0--0--|
--------------------------|--------------------------|


                                                                               
--------------------------|--------------------------|------------------------|
--------------------------|--------------------------|------------------------|
--0--0--0--0--0--0--0--0--|--------------------------|------------------------|
--------------------------|--3--3--3--3--3--3--6--6--|--6--6--6--6--8----8----|


                                                                                
-------------------------|--------------------------|--------------------------|
-------------------------|--------------------------|--------------------------|
-------------------------|--------------------------|--------------------------|
--6--5--3--5----5--5--5--|--5--5--5--5--5--5--5--5--|--3--3--3--3--3--3--6--6--|


                                                                              
------------------------|-------------------------|--------------------------|
------------------------|-------------------------|--------------------------|
------------------------|-------------------------|--------------------------|
--6--6--6--6--8----8----|--6--5--3--5----5--5--5--|--5--5--5--5--5--5--5--5--|


                                                      
--------------------------|--------------------------|
-----------2--2--2--------|-----3--------3--2--0--0--|
--0--0--0-----------0--0--|--0-----0--0--------------|
--------------------------|--------------------------|


                                                      
--------------------------|--------------------------|
-----------0--2--2--------|--------------------------|
--3--3--3-----------0--0--|--0--0--0--0--0--0--0--0--|
--------------------------|--------------------------|


                                                      
--------------------------|--------------------------|
-----------2--2--2--------|-----3--------3--2--0--0--|
--0--0--0-----------0--0--|--0-----0--0--------------|
--------------------------|--------------------------|


                                                      
--------------------------|--------------------------|
-----------0--2--2--------|--------------------------|
--3--3--3-----------0--0--|--0--0--0--0--0--0--0--0--|
--------------------------|--------------------------|


                                                                              
--------------------------|------------------------|-------------------------|
--------------------------|------------------------|-------------------------|
--------------------------|------------------------|-------------------------|
--3--3--3--3--3--3--6--6--|--6--6--6--6--8----8----|--6--5--3--5----5--5--5--|


                                                                               
--------------------------|--------------------------|------------------------|
--------------------------|--------------------------|------------------------|
--------------------------|--------------------------|------------------------|
--5--5--5--5--5--5--5--5--|--3--3--3--3--3--3--6--6--|--6--6--6--6--8----8----|


                                                                            
-------------------------|--------------------------|----------------------|
-------------------------|--------------------------|----------------------|
-------------------------|--------------------------|----------------------|
--6--5--3--5----5--5--5--|--5--5--5--5--5--5--5--5--|--5--5--5--5----------|


                                                               
--------------------|----------------------|------------------|
--------------------|----------------------|------------------|
--------------------|----------------------|------------------|
----------5----8----|--8--6--6--6----------|------------------|


                                                                   
----------------------|--------------------|----------------------|
----------------------|--------------------|----------------------|
----------------------|--------------------|----------------------|
--5--5--5--5----------|----------3----6----|--6--5--5--5----------|


                                                               
------------------|----------------------|--------------------|
------------------|----------------------|--------------------|
------------------|----------------------|--------------------|
------------------|--5--5--5--5----------|----------5----8----|


                                                                 
----------------------|------------------|----------------------|
----------------------|------------------|----------------------|
----------------------|------------------|----------------------|
--8--6--6--6----------|------------------|--5--5--5--5----------|


                                                               
--------------------|----------------------|------------------|
--------------------|----------------------|------------------|
--------------------|----------------------|------------------|
----------3----6----|--6--5--5--5----------|------------------|


                                                      
--------------------------|--------------------------|
-----------2--2--2--------|-----3--------3--2--0--0--|
--0--0--0-----------0--0--|--0-----0--0--------------|
--------------------------|--------------------------|


                                                      
--------------------------|--------------------------|
-----------0--2--2--------|--------------------------|
--3--3--3-----------0--0--|--0--0--0--0--0--0--0--0--|
--------------------------|--------------------------|


                                                      
--------------------------|--------------------------|
-----------2--2--2--------|-----3--------3--2--0--0--|
--0--0--0-----------0--0--|--0-----0--0--------------|
--------------------------|--------------------------|


                                                      
--------------------------|--------------------------|
-----------0--2--2--------|--------------------------|
--3--3--3-----------0--0--|--0--0--0--0--0--0--0--0--|
--------------------------|--------------------------|


                                                                              
--------------------------|------------------------|-------------------------|
--------------------------|------------------------|-------------------------|
--------------------------|------------------------|-------------------------|
--3--3--3--3--3--3--6--6--|--6--6--6--6--8----8----|--6--5--3--5----5--5--5--|


                                                                               
--------------------------|--------------------------|------------------------|
--------------------------|--------------------------|------------------------|
--------------------------|--------------------------|------------------------|
--5--5--5--5--5--5--5--5--|--3--3--3--3--3--3--6--6--|--6--6--6--6--8----8----|


                                                                            
-------------------------|--------------------------|----------------------|
-------------------------|--------------------------|----------------------|
-------------------------|--------------------------|----------------------|
--6--5--3--5----5--5--5--|--5--5--5--5--5--5--5--5--|--5--5--5--5----------|


                                                               
--------------------|----------------------|------------------|
--------------------|----------------------|------------------|
--------------------|----------------------|------------------|
----------5----8----|--8--6--6--6----------|------------------|


                                                                   
----------------------|--------------------|----------------------|
----------------------|--------------------|----------------------|
----------------------|--------------------|----------------------|
--5--5--5--5----------|----------3----6----|--6--5--5--5----------|


                                                               
------------------|----------------------|--------------------|
------------------|----------------------|--------------------|
------------------|----------------------|--------------------|
------------------|--5--5--5--5----------|----------5----8----|


                                                                 
----------------------|------------------|----------------------|
----------------------|------------------|----------------------|
----------------------|------------------|----------------------|
--8--6--6--6----------|------------------|--5--5--5--5----------|


                                                               
--------------------|----------------------|------------------|
--------------------|----------------------|------------------|
--------------------|----------------------|------------------|
----------3----6----|--6--5--5--5----------|------------------|


                                                      
--------------------------|--------------------------|
-----------2--2--2--------|--------------------------|
--0--0--0-----------0--0--|--0--0--0--0--0--0--0--0--|
--------------------------|--------------------------|


                                                      
--------------------------|--------------------------|
-----------3--3--3--------|--------------------------|
--0--0--0-----------0--0--|--0--0--0--0--0--0--0--0--|
--------------------------|--------------------------|


                                                      
--------------------------|--------------------------|
-----------2--2--2--------|--------------------------|
--0--0--0-----------0--0--|--0--0--0--0--0--0--0--0--|
--------------------------|--------------------------|


                                                      
--------------------------|--------------------------|
-----------3--3--3--------|--------------------------|
--0--0--0-----------0--0--|--0--0--0--0--0--0--0--0--|
--------------------------|--------------------------|


                                                      
--------------------------|--------------------------|
-----------0--0--0--------|--------------------------|
--------------------------|--------------------------|
--3--3--3-----------3--3--|--3--3--3--3--3--3--3--3--|


                                                      
--------------------------|--------------------------|
-----------1--1--1--------|--------------------------|
--------------------------|--------------------------|
--3--3--3-----------3--3--|--3--3--3--3--3--3--3--3--|


                                                      
--------------------------|--------------------------|
-----------0--0--0--------|--------------------------|
--------------------------|--------------------------|
--3--3--3-----------3--3--|--3--3--3--3--3--3--3--3--|


                                                      
--------------------------|--------------------------|
-----------1--1--1--------|--------------------------|
--------------------------|--------------------------|
--3--3--3-----------3--3--|--3--3--3--3--3--3--3--3--|


                                                      
--------------------------|--------------------------|
-----------2--2--2--------|--------------------------|
--0--0--0-----------0--0--|--0--0--0--0--0--0--0--0--|
--------------------------|--------------------------|


                                                      
--------------------------|--------------------------|
-----------3--3--3--------|--------------------------|
--0--0--0-----------0--0--|--0--0--0--0--0--0--0--0--|
--------------------------|--------------------------|


                                                      
--------------------------|--------------------------|
-----------2--2--2--------|--------------------------|
--0--0--0-----------0--0--|--0--0--0--0--0--0--0--0--|
--------------------------|--------------------------|


                                                      
--------------------------|--------------------------|
-----------3--3--3--------|--------------------------|
--0--0--0-----------0--0--|--0--0--0--0--0--0--0--0--|
--------------------------|--------------------------|


                                                      
--------------------------|--------------------------|
-----------0--0--0--------|--------------------------|
--------------------------|--------------------------|
--3--3--3-----------3--3--|--3--3--3--3--3--3--3--3--|


                                                      
--------------------------|--------------------------|
-----------1--1--1--------|--------------------------|
--------------------------|--------------------------|
--3--3--3-----------3--3--|--3--3--3--3--3--3--3--3--|


                                                      
--------------------------|--------------------------|
-----------0--0--0--------|--------------------------|
--------------------------|--------------------------|
--3--3--3-----------3--3--|--3--3--3--3--3--3--3--3--|


                                                                              
--------------------------|--------------------------|-----------------------|
-----------1--1--1--------|--------------------------|-------7---------------|
--------------------------|--------------------------|-----------------------|
--3--3--3-----------3--3--|--3--3--3--3--3--3--3--3--|--5-------------3-5-6--|


                                                                     
---------------------|---------------------|------------------------|
--------7------------|---------------------|------------------------|
---------------------|---------------------|------------------------|
--6--5---------------|--5----5--------5/---|--12/-------x----6-5-3--|


                                                                      
-----------------------|---------------------|-----------------------|
-------4---------------|--------4------------|-------4---------------|
-----------------------|---------------------|-----------------------|
--2-------------0-2-3--|--3--2---------------|--2-------------0-2-3--|


                                                        
------------------------|------------------------------|
--------4---------------|------------------------------|
------------------------|------------------------------|
--3--2-----------0-2-3--|--5--5-5-5--5-5-5--5-5-3-5-6--|


                                                             
-----------------------------|------------------------------|
-----------------------------|------------------------------|
-----------------------------|------------------------------|
--6--5--5--5-5-5--5-5-5--5-5-|--5--5-5-5--5-5-5--5-5-3-5-6--|


                                                            
----------------------------|------------------------------|
----------------------------|------------------------------|
----------------------------|------------------------------|
--6--5--5--5-5-5--5-6--5-3--|--2--2-2-2--2-2-2--2-2-2-0-3--|


                                                             
-----------------------------|------------------------------|
-----------------------------|------------------------------|
-----------------------------|------------------------------|
--3--2--2--2-2-2--2-2-2--2-2-|--2--2-2-2--2-2-2--2-2-2-0-3--|


                                                             
-----------------------------|------------------------------|
-----------------------------|------------------------------|
-----------------------------|------------------------------|
--3--2--2--2-2-2--2-2-0-2-3--|--5--5-5-5--5-5-5--5-5-3-5-6--|


                                                             
-----------------------------|------------------------------|
-----------------------------|------------------------------|
-----------------------------|------------------------------|
--6--5--5--5-5-5--5-5-5--5-5-|--5--5-5-5--5-5-5--5-5-3-5-6--|


                                                            
----------------------------|------------------------------|
----------------------------|------------------------------|
----------------------------|------------------------------|
--6--5--5--5-5-5--5-6--5-3--|--2--2-2-2--2-2-2--2-2-2-0-3--|


                                                             
-----------------------------|------------------------------|
-----------------------------|------------------------------|
-----------------------------|------------------------------|
--3--2--2--2-2-2--2-2-2--2-2-|--2--2-2-2--2-2-2--2-2-2-0-3--|


                                                         
-----------------------------|-----9-----10-------7-----|
-----------------------------|--7-----7------7-------7--|
-----------------------------|--------------------------|
--3--2--2--2-2-2--2-2-0-2-3--|--------------------------|


                                                                           
--9-------9-------9~---|-----9-----10-------7-----|--9-------9-------9~---|
-----7-------7---------|--7-----7------7-------7--|-----7-------7---------|
-----------------------|--------------------------|-----------------------|
-----------------------|--------------------------|-----------------------|


                                                                            
-----7-----8-------5-----|--7-------7-------7~---|-----7-----8-------5-----|
--5-----5-----5-------5--|-----5-------5---------|--5-----5-----5-------5--|
-------------------------|-----------------------|-------------------------|
-------------------------|-----------------------|-------------------------|


                                                                           
--7-------7-------7~---|-----9-----10-------7-----|--9-------9-------9~---|
-----5-------5---------|--7-----7------7-------7--|-----7-------7---------|
-----------------------|--------------------------|-----------------------|
-----------------------|--------------------------|-----------------------|


                                                                             
-----9-----10-------7-----|--9-------9-------9~---|-----7-----8-------5-----|
--7-----7------7-------7--|-----7-------7---------|--5-----5-----5-------5--|
--------------------------|-----------------------|-------------------------|
--------------------------|-----------------------|-------------------------|


                                                                          
--7-------7-------7~---|-----7-----8-------5-----|--7-------7-------7~---|
-----5-------5---------|--5-----5-----5-------5--|-----5-------5---------|
-----------------------|-------------------------|-----------------------|
-----------------------|-------------------------|-----------------------|


                                                                              
-----9-----10-------7-----|--9-------9-------9~---|-----9-----10-------7-----|
--7-----7------7-------7--|-----7-------7---------|--7-----7------7-------7--|
--------------------------|-----------------------|--------------------------|
--------------------------|-----------------------|--------------------------|


                                                                          
--9-------9-------9~---|-----7-----8-------5-----|--7-------7-------7~---|
-----7-------7---------|--5-----5-----5-------5--|-----5-------5---------|
-----------------------|-------------------------|-----------------------|
-----------------------|-------------------------|-----------------------|


                                                                        
-----7-----8-------5-----|--7-------7-------7~---|-----9---------------|
--5-----5-----5-------5--|-----5-------5---------|--7-----7------------|
-------------------------|-----------------------|---------------------|
-------------------------|-----------------------|---------------------|


                                                                  
-----9---------------|-----9---------------|-----9---------------|
--7-----7------------|--7-----7------------|--7-----7------------|
---------------------|---------------------|---------------------|
---------------------|---------------------|---------------------|


                                                                  
-----7---------------|-----7---------------|-----7---------------|
--5-----5------------|--5-----5------------|--5-----5------------|
---------------------|---------------------|---------------------|
---------------------|---------------------|---------------------|


                                                                  
-----7---------------|-----9---------------|-----9---------------|
--5-----5------------|--7-----7------------|--7-----7------------|
---------------------|---------------------|---------------------|
---------------------|---------------------|---------------------|


                                                                  
-----9---------------|-----9---------------|-----7---------------|
--7-----7------------|--7-----7------------|--5-----5------------|
---------------------|---------------------|---------------------|
---------------------|---------------------|---------------------|


                                                                  
-----7---------------|-----7---------------|-----7---------------|
--5-----5------------|--5-----5------------|--5-----5------------|
---------------------|---------------------|---------------------|
---------------------|---------------------|---------------------|


                                                               
--------------------|--------------------|--------------------|
-----------7--------|--------------------|-----------7--------|
--------------------|--------------------|--------------------|
--5-----------------|------------6----6--|----5---------------|


                                                             
------------------|--------------------|--------------------|
------------------|-----------7--------|--------------------|
------------------|--------------------|--------------------|
------------------|--5-----------------|------------6----6--|


                                                              
---------------------|------------------|--------------------|
---------------------|------------------|-----------5--------|
---------------------|------------------|--------------------|
----5/-----12--------|------------------|--3-----------------|


                                                             
------------------|--------------------|--------------------|
------------------|-----------5--------|--------------------|
------------------|--------------------|--------------------|
------------------|--3-----------------|------------6----6--|


                                                               
--------------------|--------------------|--------------------|
-----------7--------|--------------------|-----------7--------|
--------------------|--------------------|--------------------|
----5---------------|------------6----6--|----5---------------|


                                                                         
------------------|--------------------------|--------------------------|
------------------|-----------2--2--2--------|-----3--------3--2--0--0--|
------------------|--0--0--0-----------0--0--|--0-----0--0--------------|
------------------|--------------------------|--------------------------|


                                                      
--------------------------|--------------------------|
-----------0--2--2--------|--------------------------|
--3--3--3-----------0--0--|--0--0--0--0--0--0--0--0--|
--------------------------|--------------------------|


                                                      
--------------------------|--------------------------|
-----------2--2--2--------|-----3--------3--2--0--0--|
--0--0--0-----------0--0--|--0-----0--0--------------|
--------------------------|--------------------------|


                                                      
--------------------------|--------------------------|
-----------0--2--2--------|--------------------------|
--3--3--3-----------0--0--|--0--0--0--0--0--0--0--0--|
--------------------------|--------------------------|


                                                                              
--------------------------|------------------------|-------------------------|
--------------------------|------------------------|-------------------------|
--------------------------|------------------------|-------------------------|
--3--3--3--3--3--3--6--6--|--6--6--6--6--8----6----|--6--5--3--5----5--5--5--|


                                                                               
--------------------------|--------------------------|------------------------|
--------------------------|--------------------------|------------------------|
--------------------------|--------------------------|------------------------|
--5--5--5--5--5--5--5--5--|--3--3--3--3--3--3--6--6--|--6--6--6--6--8----6----|


                                                                                
-------------------------|--------------------------|--------------------------|
-------------------------|--------------------------|-----------2--2--2--------|
-------------------------|--------------------------|--0--0--0-----------0--0--|
--6--5--3--5----5--5--5--|--5--5--5--5--5--5--5--5--|--------------------------|


                                                      
--------------------------|--------------------------|
-----3--------3--2--0--0--|-----------0--2--2--------|
--0-----0--0--------------|--3--3--3-----------0--0--|
--------------------------|--------------------------|


                                                      
--------------------------|--------------------------|
--------------------------|-----------2--2--2--------|
--0--0--0--0--0--0--0--0--|--0--0--0-----------0--0--|
--------------------------|--------------------------|


                                                      
--------------------------|--------------------------|
-----3--------3--2--0--0--|-----------0--2--2--------|
--0-----0--0--------------|--3--3--3-----------0--0--|
--------------------------|--------------------------|


                                                                               
--------------------------|--------------------------|------------------------|
--------------------------|--------------------------|------------------------|
--0--0--0--0--0--0--0--0--|--------------------------|------------------------|
--------------------------|--3--3--3--3--3--3--6--6--|--6--6--6--6--8----6----|


                                                                                
-------------------------|--------------------------|--------------------------|
-------------------------|--------------------------|--------------------------|
-------------------------|--------------------------|--------------------------|
--6--5--3--5----5--5--5--|--5--5--5--5--5--5--5--5--|--3--3--3--3--3--3--6--6--|


                                                                              
------------------------|-------------------------|--------------------------|
------------------------|-------------------------|--------------------------|
------------------------|-------------------------|--------------------------|
--6--6--6--6--8----6----|--6--5--3--5----5--5--5--|--5--5--5--5--5--5--5--5--|


                                                                     
|-----------------------|--------------------|----------------------|
|*----------------------|--------------------|----------------------|
|*----------------------|--------------------|----------------------|
|---5--5--5--5----------|----------5----8----|--8--6--6--6----------|


                                                               
------------------|----------------------|--------------------|
------------------|----------------------|--------------------|
------------------|----------------------|--------------------|
------------------|--5--5--5--5----------|----------3----6----|


                                          2x                       
----------------------|-------------------||----------------------|
----------------------|------------------*||----------------------|
----------------------|------------------*||----------------------|
--6--5--5--5----------|-------------------||--5--5--5--5----------|


                                                               
--------------------|----------------------|------------------|
--------------------|----------------------|------------------|
--------------------|----------------------|------------------|
----------5----8----|--8--6--6--6----------|------------------|


                                                                   
----------------------|--------------------|----------------------|
----------------------|--------------------|----------------------|
----------------------|--------------------|----------------------|
--5--5--5--5----------|----------3----6----|--6--5--5--5----------|


                                                                         
------------------|--------------------------|--------------------------|
------------------|-----------2--2--2--------|-----3--------3--2--0--0--|
------------------|--0--0--0-----------0--0--|--0-----0--0--------------|
------------------|--------------------------|--------------------------|


                                                      
--------------------------|--------------------------|
-----------0--2--2--------|--------------------------|
--3--3--3-----------0--0--|--0--0--0--0--0--0--0--0--|
--------------------------|--------------------------|


                                                      
--------------------------|--------------------------|
-----------2--2--2--------|-----3--------3--2--0--0--|
--0--0--0-----------0--0--|--0-----0--0--------------|
--------------------------|--------------------------|


                                                      
--------------------------|--------------------------|
-----------0--2--2--------|--------------------------|
--3--3--3-----------0--0--|--0--0--0--0--0--0--0--0--|
--------------------------|--------------------------|


                                                                              
--------------------------|------------------------|-------------------------|
--------------------------|------------------------|-------------------------|
--------------------------|------------------------|-------------------------|
--3--3--3--3--3--3--6--6--|--6--6--6--6--8----8----|--6--5--3--5----5--5--5--|


                                                                               
--------------------------|--------------------------|------------------------|
--------------------------|--------------------------|------------------------|
--------------------------|--------------------------|------------------------|
--5--5--5--5--5--5--5--5--|--3--3--3--3--3--3--6--6--|--6--6--6--6--8----8----|


                                                                                
-------------------------|--------------------------|--------------------------|
-------------------------|--------------------------|-----------2--2--2--------|
-------------------------|--------------------------|--0--0--0-----------0--0--|
--6--5--3--5----5--5--5--|--5--5--5--5--5--5--5--5--|--------------------------|


                                                      
--------------------------|--------------------------|
-----3--------3--2--0--0--|-----------0--2--2--------|
--0-----0--0--------------|--3--3--3-----------0--0--|
--------------------------|--------------------------|


                                                      
--------------------------|--------------------------|
--------------------------|-----------2--2--2--------|
--0--0--0--0--0--0--0--0--|--0--0--0-----------0--0--|
--------------------------|--------------------------|


                                                      
--------------------------|--------------------------|
-----3--------3--2--0--0--|-----------0--2--2--------|
--0-----0--0--------------|--3--3--3-----------0--0--|
--------------------------|--------------------------|


                                                      
--------------------------|--------------------------|
--------------------------|-----------2--2--2--------|
--0--0--0--0--0--0--0--0--|--0--0--0-----------0--0--|
--------------------------|--------------------------|


                                                      
--------------------------|--------------------------|
-----3--------3--2--0--0--|-----------0--2--2--------|
--0-----0--0--------------|--3--3--3-----------0--0--|
--------------------------|--------------------------|


                                                      
--------------------------|--------------------------|
--------------------------|-----------2--2--2--------|
--0--0--0--0--0--0--0--0--|--0--0--0-----------0--0--|
--------------------------|--------------------------|


                                                      
--------------------------|--------------------------|
-----3--------3--2--0--0--|-----------0--2--2--------|
--0-----0--0--------------|--3--3--3-----------0--0--|
--------------------------|--------------------------|


                                                      
--------------------------|--------------------------|
--------------------------|-----------2--2--2--------|
--0--0--0--0--0--0--0--0--|--0--0--0-----------0--0--|
--------------------------|--------------------------|


                                                      
--------------------------|--------------------------|
-----3--------3--2--0--0--|-----------0--2--2--------|
--0-----0--0--------------|--3--3--3-----------0--0--|
--------------------------|--------------------------|


                                                      
--------------------------|--------------------------|
--------------------------|-----------2--2--2--------|
--0--0--0--0--0--0--0--0--|--0--0--0-----------0--0--|
--------------------------|--------------------------|


                                                      
--------------------------|--------------------------|
-----3--------3--2--0--0--|-----------0--2--2--------|
--0-----0--0--------------|--3--3--3-----------0--0--|
--------------------------|--------------------------|


                                                                               
--------------------------|--------------------------|------------------------|
--------------------------|--------------------------|------------------------|
--0--0--0--0--0--0--0--0--|--------------------------|------------------------|
--------------------------|--3--3--3--3--3--3--6--6--|--6--6--6--6--8----8----|


                                                                                
-------------------------|--------------------------|--------------------------|
-------------------------|--------------------------|--------------------------|
-------------------------|--------------------------|--------------------------|
--6--5--3--5----5--5--5--|--5--5--5--5--5--5--5--5--|--3--3--3--3--3--3--6--6--|


                                                                              
------------------------|-------------------------|--------------------------|
------------------------|-------------------------|--------------------------|
------------------------|-------------------------|--------------------------|
--6--6--6--6--8----8----|--6--5--3--5----5--5--5--|--5--5--5--5--5--5--5--5--|


                      
------|------|------||
------|------|------||
------|------|------||
------|------|------||





Comments


Popular Iced Earth tabs & chords
Dracula 2 Bass Tabs
Stand Alone Bass Tabs
The Phantom Opera Ghost Bass Tabs
Watching Over Me 1 Bass Tabs
1776 (Solo) Tabs
Angels Holocaut Tabs
Iced Earth 1 Tabs
Something Wicked Trilogy Tabs
Stand Alone Tabs
Written On The Walls 3 Tabs


Song lyrics



↑ Back to top | Tablatures and chords are parodies/interpretations of the original songs. You may use it for private study, scholarship, research or language learning purposes only
© 2014 AZChords.com Contact us | Privacy policy | DMCA | Add/correct tabs | Request tabs | Top 50 tabs