» » »

Iced Earth, Reaching The End Tabs (ver.1)

Artists:  A B C D E F G H I J K L M N O P Q R S T U V W X Y Z # 

Reaching The End Tabs (ver.1)

Iced Earth Tabs
Rating:
0/5 (0 votes)
Hard to play? Try these video lessons and learn fast.
                Iced Earth:  Reaching The End



                          The Frozen Palace



Tuning: Eb

Riff 1 (acoustic)                   x4
eb|---------7----------------7-------|
Bb|-------0---0------------0---0-----|
Gb|-----0-------0--------0-------0---|
Db|---5----------------5-------------|
Ab|-7--------------7-6-------------6-|
Eb|----------------------------------|


Riff 2 (acoustic)
eb|---------------------------------|
Bb|---------------------------------|
Gb|-----7-----7-----6-----6-----6---|
Db|---7---7-----7-----7-----7-----7-|
Ab|-5-------5-----5-----5-----5-----|
Eb|---------------------------------|
   "Now I feel......"

eb|---------------------------------|
Bb|---------------------------------|
Gb|-----7-----7-----6-----6-----6---|
Db|---7---7-----7-------7---7-----7-|
Ab|-5-------5-----5---5-------5-----|
Eb|---------------------------------|
   "...reached the end..."

eb|---------------------------------|
Bb|---------------------------------|
Gb|-----5-----5-----4-----0-----0---|
Db|---5---5-----5-----5-----5-----5-|
Ab|-3-------3-----3-----3-----3-----|
Eb|---------------------------------|
   "...end of my quest..."

eb|---------------------------------|
Bb|---------------------------------|
Gb|-----5-----5-----4-----0-----0---|
Db|---5-----5-----5---5-----5-----5-|
Ab|-3-----3-----3-------3-----3-----|
Eb|---------------------------------|
   "..close at hand...."

Riff 3
Guitar 1 (acoustic)
eb|-------------------------------|
Bb|-------------------------------|
Gb|-----2-----2--------2---/5--4--|
Db|---2---2-----2----3---3--------|
Ab|-0-------0-----0---------------|
Eb|-------------------------------|
     "I've reached the end....."

Guitar 2 (acoustic)
eb|------------------------1/3--1--0-|
Bb|----------------------------------|
Gb|-----2-----2--------2-------------|
Db|---2---2-----2----3---3-----------|
Ab|-0-------0-----0------------------|
Eb|----------------------------------|

Play Riff 2   "And as my life......"
Play Riff 3   "I've reached the end..."

Ending
eb|--------|
Bb|--------|
Gb|-----2--|
Db|---2----|
Ab|-0------|
Eb|--------|
            

comments powered by Disqus
↑ Back to top | Iced Earth Tabs for Reaching The End. Lyrics for acoustic guitar and electric guitar. Tablatures and chords are parodies/interpretations of the original songs. You may use it for private study, scholarship, research or language learning purposes only