>
 >
Disciples Of The Lie

Disciples Of The Lie Guitar Tabs

Iced Earth - Disciples Of The Lie chords, tabs, tablatures, lyrics

Guitar lessons | Add/correct | Request | Top 50 tabs Artists:  A B C D E F G H I J K L M N O P Q R S T U V W X Y Z 0-9

Disciples Of The Lie Guitar Tabs – Iced Earth

CD, Sheet music, Poster

Do you like Disciples Of The Lie? Share with your friends now
Tabs
Iced Earth:  Disciples of the Lie



                          The Frozen Palace



Tuning: Eb

Riff 1
Guitar 1 (the '000' thing is done 7 times)
eb|---------------------------------------------------------|
Bb|---------------------------------------------------------|
Gb|---------------------------------------------------------|
Db|---------------------------------------------------------|
Ab|-9-------------8-------------7-------------6-------------|
Eb|-7-000-000--..-6-000-000--..-5-000-000--..-4-000-000--..-|
      *** ***       *** ***       *** ***       *** ***

Guitar 2
eb|-------------------------------------|
Bb|-10~~------10~~------10~~------9~~---|
Gb|-11~~------10~~-------9~~------8~~---|
Db|-------------------------------------|
Ab|-------------------------------------|
Eb|-------------------------------------|


Riff 2                             x2
eb|---------------------------------|--------|
Bb|---------------------------------|--------|
Gb|---------------------------------|--------|
Db|---------------------------------|------2-|
Ab|-5-7-8-7-------------------------|------2-|
Eb|---------000-000-000-000-000-000-|-//\\-0-|
    * * * * *** *** *** *** *** ***


Riff 3
eb|------------------------------------|
Bb|------------------------------------|
Gb|------------------------------------|
Db|------------------------------------|
Ab|-2-2-5--2-2-5-----------------------|
Eb|-0-0-3--0-0-3-000-3-2-1~-000-3-2-1~-|
    * *    * *   *** * *    *** * *


Riff 4
eb|-------------------------------|
Bb|-------------------------------|
Gb|-------------------------------|
Db|-------------------------------|
Ab|-------------------------2-2-5-|
Eb|-000-000-000-000-000-000-0-0-3-|
    *** *** *** *** *** *** * *
   "You abuse......"
eb|-------------------------------|
Bb|-------------------------------|
Gb|-------------------------------|
Db|-------------------------------|
Ab|-------------------------------|
Eb|-000-000-000-3-2-1~-000-3-2-1~-|
    *** *** *** * *    *** * *


Play Riff 1   "I've gotta do as you say....."
Play Riff 2   "...disciples of the lie....."
Play Riff 3
Play Riff 4   "Breeding fear...."
Play Riff 1   "I've gotta do as you say....."
Play Riff 2   "...disciples of the lie....."

Interlude

Riff 5
eb|-----------------------------------------------------|
Bb|-----------------------------------------------------|
Gb|-----------------------------------------------------|
Db|-----------------------------------------------------|
Ab|-9------------8------------7------------6------------|
Eb|-7-77777777..-6-66666666..-5-55555555..-4-44444444..-|
      ********     ********     ********     ********
   "The blackness inside......"

Play Riff 1   "I've gotta do as you say....."
Play Riff 2   "I want to see you die....."

Ending
eb|-----------------|
Bb|-----------------|
Gb|-----------------|
Db|-----------------|
Ab|-2-2-5--2-2-5--2-|
Eb|-0-0-3--0-0-3--0-|





Comments


Popular Iced Earth tabs & chords
Burning Oasis 2 Bass Tabs
Battle Field Intro Tabs
Boiling Point Tabs
Dantes Inferno 1 Tabs
Ghost Of Freedom Tabs
Hallowed Be Thy Name 2 Tabs
Minions Of The Watch Tabs
Number Of The Beast Tabs
The Coming Curse Tabs
Written On The Walls 2 Tabs


Song lyrics



↑ Back to top | Tablatures and chords are parodies/interpretations of the original songs. You may use it for private study, scholarship, research or language learning purposes only
© 2014 AZChords.com Contact us | Privacy policy | DMCA | Add/correct tabs | Request tabs | Top 50 tabs