» » »

Iced Earth, Boiling Point Tabs (ver.1)

Artists:  A B C D E F G H I J K L M N O P Q R S T U V W X Y Z # 

Boiling Point Tabs (ver.1)

Iced Earth Tabs
 Rating:
4.3/5 (6 votes)
Boiling Point lessons Tabs too difficult? Try these video lessons and learn fast
1
                Boiling Point - half-step down
=============
transcription: Myke Havoc

 main riff:
|------------------------------|-----------------------------|
|------------------------------|-----------------------------|
|------------------------------|-----------------------------|
|------------------------------|-----------------------------|
|------------------------------|-----------------------------|
|-0-0-0-12-0-0-13-0-0-10-12-13-|0-0-0-12-0-0-15-0-0-10-12-13-|
  pm---------------->           pm---------------->

 main riff cont'd:
|------------------------------|----------------------|
|------------------------------|----------------------|
|------------------------------|----------------------|
|------------------------------|----------------------|
|------------------------------|------5-----------3---|
|-0-0-0-12-0-0-13-0-0-10-12-13-|3-3-3---3-3-1-1-1-1---|
  pm---------------->           pm-------------->

 verse riff:
|----------------------------|
|----------------------------|
|----------------------------|
|-2-2--------[3x]----------3-|
|-2-2----------------------3-|
|-0-0-000000------3333331111-|
      pm--->      pm------>

 chorus:
|-----------------------------------------|-----------------------------------|
|-----------------------------------------|-----------------------------------|
|-----------------------------------------|-----------------------------------|
|-2---------5---------7---------3---------|-2---------5---------7---------3-~-|
|-2---------5---------7---------3---------|-2---------5---------7---------3-~-|
|-0---3333103---5555305---5555301---333310|-0---3333103---5555305---5555301-~-|
      pm--->    pm--->    pm--->    pm--->      pm--->    pm--->    pm--->


main riff [4x]
verse     [4x]
chorus    
verse     [4x]
chorus    
main riff [2x]
verse     [4x]
chorus    
main riff [4x]
E 
            
Submit corrections

comments powered by Disqus
↑ Back to top | Iced Earth Tabs for Boiling Point. Lyrics for acoustic guitar and electric guitar. 1 Tablatures and chords are parodies/interpretations of the original songs. You may use it for private study, scholarship, research or language learning purposes only