>
 >
Birth Of The Wicked

Birth Of The Wicked Bass Tabs

Iced Earth - Birth Of The Wicked chords, tabs, tablatures, lyrics

Guitar lessons | Add/correct | Request | Top 50 tabs Artists:  A B C D E F G H I J K L M N O P Q R S T U V W X Y Z 0-9

Birth Of The Wicked Bass Tabs – Iced Earth

CD, Sheet music, Poster

Do you like Birth Of The Wicked? Share with your friends now
Bass TabsTabsTabs v2
Birth Of The Wicked                               


                                                                      Iced Earth
Bass



      E  S S E  E  Q    Q       E  S S E  E  Q    Q     
F#||-------------------------|-------------------------|
C#||-------------------------|-------------------------|
G#||--5--5-5-5--5--L----5----|--6--6-6-6--6--L----6----|
D#||-------------------------|-------------------------|


  E  S S E  E  Q    Q       E  S S E  E  Q    Q       E  S S E  E  Q    Q     
-------------------------|-------------------------|-------------------------|
-------------------------|-------------------------|-------------------------|
--8--8-8-8--8--L----8----|--6--6-6-6--6--L----6----|--5--5-5-5--5--L----5----|
-------------------------|-------------------------|-------------------------|


  E  S S E  E  Q    Q       E  S S E  E  Q    Q       E  S S E  E  Q    Q     
-------------------------|-------------------------|-------------------------|
-------------------------|-------------------------|-------------------------|
--6--6-6-6--6--L----6----|--8--8-8-8--8--L----8----|--6--6-6-6--6--L----6----|
-------------------------|-------------------------|-------------------------|


  E  S S E  E  E  E  Q       E  S S E  E  E  E  Q     
--------------------------|--------------------------|
--------------------------|--------------------------|
--5--5-5-5--5--5--5--5----|--6--6-6-6--6--6--6--6----|
--------------------------|--------------------------|


  E  S S E  E  E  E  Q       E  S S E  E  E  E  Q     
--------------------------|--------------------------|
--------------------------|--------------------------|
--8--8-8-8--8--8--8--8----|--6--6-6-6--6--6--6--6----|
--------------------------|--------------------------|


  E  S S E  E  E  E  Q       E  S S E  E  E  E  Q     
--------------------------|--------------------------|
--------------------------|--------------------------|
--5--5-5-5--5--5--5--5----|--6--6-6-6--6--6--6--6----|
--------------------------|--------------------------|


  E  S S E  E  E  E  Q       E  S S E  E  E  E  Q     
--------------------------|--------------------------|
--------------------------|--------------------------|
--8--8-8-8--8--8--8--8----|--6--6-6-6--6--6--6--6----|
--------------------------|--------------------------|


  E  S S E  E  S S E  E  S S    E  E  S S E  E  E  E  E   
-----------------------------|---------------------------|
-----------------------------|---------------------------|
--5--5-5-5--5--5-5-5--5--5-5-|--5--5--5-5-5--5--6--5-----|
-----------------------------|------------------------6--|


  E  S S E  E  S S E  E  S S    E  E  S S E  E  E  E  E   
-----------------------------|---------------------------|
-----------------------------|---------------------------|
--5--5-5-5--5--5-5-5--5--5-5-|--5--5--5-5-5--5--6--5-----|
-----------------------------|------------------------6--|


  E  S S E  E  S S E  E  S S    E  E  S S E  E  E  E  E   
-----------------------------|---------------------------|
-----------------------------|---------------------------|
--5--5-5-5--5--5-5-5--5--5-5-|--5--5--5-5-5--5--6--5-----|
-----------------------------|------------------------6--|


  E  S S E  E  S S E  E  S S    E  E  S S E  E  E  E  E   
-----------------------------|---------------------------|
-----------------------------|---------------------------|
--5--5-5-5--5--5-5-5--5--5-5-|--5--5--5-5-5--5--6--5-----|
-----------------------------|------------------------6--|


  E  S S E  E  Q    Q       E  S S E  E  Q    Q     
-------------------------|-------------------------|
-------------------------|-------------------------|
--3--3-3-3--3--L----3----|--6--6-6-6--6--L----6----|
-------------------------|-------------------------|


  E  S S E  E  S S E  E  S S    E  E  S S E  E  E  E  E   
-----------------------------|---------------------------|
-----------------------------|---------------------------|
--5--5-5-5--5--5-5-5--5--5-5-|--5--5--5-5-5--5--6--5-----|
-----------------------------|------------------------6--|


  E  S S E  E  S S E  E  S S    E  E  S S E  E  E  E  E   
-----------------------------|---------------------------|
-----------------------------|---------------------------|
--5--5-5-5--5--5-5-5--5--5-5-|--5--5--5-5-5--5--6--5-----|
-----------------------------|------------------------6--|


  E  S S E  E  S S E  E  S S    E  E  S S E  E  E  E  E   
-----------------------------|---------------------------|
-----------------------------|---------------------------|
--5--5-5-5--5--5-5-5--5--5-5-|--5--5--5-5-5--5--6--5-----|
-----------------------------|------------------------6--|


  E  S S E  E  S S E  E  S S    E  E  S S E  E  E  E  E   
-----------------------------|---------------------------|
-----------------------------|---------------------------|
--5--5-5-5--5--5-5-5--5--5-5-|--5--5--5-5-5--5--6--5-----|
-----------------------------|------------------------6--|


  E  S S E  E  S S E  E  S S    E  E  S S E  E  E  E  E   
-----------------------------|---------------------------|
-----------------------------|---------------------------|
--5--5-5-5--5--5-5-5--5--5-5-|--5--5--5-5-5--5--6--5-----|
-----------------------------|------------------------6--|


  E  S S E  E  Q    Q       E  S S E  E  Q    Q     
-------------------------|-------------------------|
-------------------------|-------------------------|
--3--3-3-3--3--L----3----|--6--6-6-6--6--L----6----|
-------------------------|-------------------------|


  E  S S E  E  S S E  E  S S    E  E  S S E  E  E  E  E   
-----------------------------|---------------------------|
-----------------------------|---------------------------|
--5--5-5-5--5--5-5-5--5--5-5-|--5--5--5-5-5--5--6--5-----|
-----------------------------|------------------------6--|


  E  E  E  E  E  E  E  E     E  E  E  E  E   E  E   E   
--------------------------|----------------------------|
--7--------8--------5-----|-----7--------7p--5--7p--5--|
-----5--5-----5--5-----5--|--5-----5--5----------------|
--------------------------|----------------------------|


  E  E  E  E  E  E  E  E     E  E  E  E  E   E  E   E   
--------------------------|----------------------------|
--7--------8--------5-----|-----7--------7p--5--7p--5--|
-----5--5-----5--5-----5--|--5-----5--5----------------|
--------------------------|----------------------------|


  E  E  E  E  E  E  E  E     E  E  E  E  E   E  E   E   
--------------------------|----------------------------|
--5--------6--------3-----|-----5--------5p--3--5p--3--|
-----3--3-----3--3-----3--|--3-----3--3----------------|
--------------------------|----------------------------|


  E  E  E  E  E  E  E  E     E  E  E  E  Q    Q       E  E  E  E  E  E  E  E   
--------------------------|------------------------|--------------------------|
--3--------3--------3-----|-----3--------1----1----|--7--------8--------5-----|
-----1--1-----1--1-----1--|--1-----1--1------------|-----5--5-----5--5-----5--|
--------------------------|------------------------|--------------------------|


  E  E  E  E  E   E  E   E     E  E  E  E  E  E  E  E   
----------------------------|--------------------------|
-----7--------7p--5--7p--5--|--7--------8--------5-----|
--5-----5--5----------------|-----5--5-----5--5-----5--|
----------------------------|--------------------------|


  E  E  E  E  E   E  E   E     E  E  E  E  E  E  E  E   
----------------------------|--------------------------|
-----7--------7p--5--7p--5--|--5--------6--------3-----|
--5-----5--5----------------|-----3--3-----3--3-----3--|
----------------------------|--------------------------|


  E  E  E  E  E   E  E   E     E  E  E  E  E  E  E  E   
----------------------------|--------------------------|
-----5--------5p--3--5p--3--|--3--------3--------3-----|
--3-----3--3----------------|-----1--1-----1--1-----1--|
----------------------------|--------------------------|


  E  E  E  E  Q    Q       E  S S E  E  S S E  E  S S  
------------------------|-----------------------------|
-----3--------1----1----|-----------------------------|
--1-----1--1------------|--5--5-5-5--5--5-5-5--5--5-5-|
------------------------|-----------------------------|


  E  E  S S E  E  E  E  E     E  S S E  E  S S E  E  S S  
---------------------------|-----------------------------|
---------------------------|-----------------------------|
--5--5--5-5-5--5--6--5-----|--5--5-5-5--5--5-5-5--5--5-5-|
------------------------6--|-----------------------------|


  E  E  S S E  E  E  E  E     E  S S E  E  S S E  E  S S  
---------------------------|-----------------------------|
---------------------------|-----------------------------|
--5--5--5-5-5--5--6--5-----|--5--5-5-5--5--5-5-5--5--5-5-|
------------------------6--|-----------------------------|


  E  E  S S E  E  E  E  E     E  S S E  E  S S E  E  S S  
---------------------------|-----------------------------|
---------------------------|-----------------------------|
--5--5--5-5-5--5--6--5-----|--5--5-5-5--5--5-5-5--5--5-5-|
------------------------6--|-----------------------------|


  E  E  S S E  E  E  E  E     E  S S E  E  Q    Q       E  S S E  E  Q    Q     
---------------------------|-------------------------|-------------------------|
---------------------------|-------------------------|-------------------------|
--5--5--5-5-5--5--6--5-----|--3--3-3-3--3--L----3----|--6--6-6-6--6--L----6----|
------------------------6--|-------------------------|-------------------------|


  E  S S E  E  S S E  E  S S    E  E  S S E  E  E  E  E   
-----------------------------|---------------------------|
-----------------------------|---------------------------|
--5--5-5-5--5--5-5-5--5--5-5-|--5--5--5-5-5--5--6--5-----|
-----------------------------|------------------------6--|


  E  S S E  E  S S E  E  S S    E  E  S S E  E  E  E  E   
-----------------------------|---------------------------|
-----------------------------|---------------------------|
--5--5-5-5--5--5-5-5--5--5-5-|--5--5--5-5-5--5--6--5-----|
-----------------------------|------------------------6--|


  E  S S E  E  S S E  E  S S    E  E  S S E  E  E  E  E   
-----------------------------|---------------------------|
-----------------------------|---------------------------|
--5--5-5-5--5--5-5-5--5--5-5-|--5--5--5-5-5--5--6--5-----|
-----------------------------|------------------------6--|


  E  S S E  E  S S E  E  S S    E  E  S S E  E  E  E  E   
-----------------------------|---------------------------|
-----------------------------|---------------------------|
--5--5-5-5--5--5-5-5--5--5-5-|--5--5--5-5-5--5--6--5-----|
-----------------------------|------------------------6--|


  E  S S E  E  S S E  E  S S    E  E  S S E  E  E  E  E   
-----------------------------|---------------------------|
-----------------------------|---------------------------|
--5--5-5-5--5--5-5-5--5--5-5-|--5--5--5-5-5--5--6--5-----|
-----------------------------|------------------------6--|


  E  S S E  E  Q    Q       E  S S E  E  Q    Q     
-------------------------|-------------------------|
-------------------------|-------------------------|
--3--3-3-3--3--L----3----|--6--6-6-6--6--L----6----|
-------------------------|-------------------------|


  E  S S E  E  S S E  E  S S    E  E  S S E  E  E  E  E   
-----------------------------|---------------------------|
-----------------------------|---------------------------|
--5--5-5-5--5--5-5-5--5--5-5-|--5--5--5-5-5--5--6--5-----|
-----------------------------|------------------------6--|


  E  E  E  E  E  E  E  E     E  E  E  E  E   E  E   E   
--------------------------|----------------------------|
--7--------8--------5-----|-----7--------7p--5--7p--5--|
-----5--5-----5--5-----5--|--5-----5--5----------------|
--------------------------|----------------------------|


  E  E  E  E  E  E  E  E     E  E  E  E  E   E  E   E   
--------------------------|----------------------------|
--7--------8--------5-----|-----7--------7p--5--7p--5--|
-----5--5-----5--5-----5--|--5-----5--5----------------|
--------------------------|----------------------------|


  E  E  E  E  E  E  E  E     E  E  E  E  E   E  E   E   
--------------------------|----------------------------|
--5--------6--------3-----|-----5--------5p--3--5p--3--|
-----3--3-----3--3-----3--|--3-----3--3----------------|
--------------------------|----------------------------|


  E  E  E  E  E  E  E  E     E  E  E  E  Q    Q       E  E  E  E  E  E  E  E   
--------------------------|------------------------|--------------------------|
--3--------3--------3-----|-----3--------1----1----|--7--------8--------5-----|
-----1--1-----1--1-----1--|--1-----1--1------------|-----5--5-----5--5-----5--|
--------------------------|------------------------|--------------------------|


  E  E  E  E  E   E  E   E     E  E  E  E  E  E  E  E   
----------------------------|--------------------------|
-----7--------7p--5--7p--5--|--7--------8--------5-----|
--5-----5--5----------------|-----5--5-----5--5-----5--|
----------------------------|--------------------------|


  E  E  E  E  E   E  E   E     E  E  E  E  E  E  E  E   
----------------------------|--------------------------|
-----7--------7p--5--7p--5--|--5--------6--------3-----|
--5-----5--5----------------|-----3--3-----3--3-----3--|
----------------------------|--------------------------|


  E  E  E  E  E   E  E   E     E  E  E  E  E  E  E  E   
----------------------------|--------------------------|
-----5--------5p--3--5p--3--|--3--------3--------3-----|
--3-----3--3----------------|-----1--1-----1--1-----1--|
----------------------------|--------------------------|


  E  E  E  E  Q    Q       E  S S E  E  S S E  E  S S  
------------------------|-----------------------------|
-----3--------1----1----|-----------------------------|
--1-----1--1------------|--5--5-5-5--5--5-5-5--5--5-5-|
------------------------|-----------------------------|


  E  E  S S E  E  E  E  E     E  S S E  E  S S E  S S E   
---------------------------|-----------------------------|
---------------------------|-----------------------------|
--5--5--5-5-5--5--6--5-----|--5--5-5-5--5--5-5-5--5-5-5--|
------------------------6--|-----------------------------|


  E  E  E  E  E   E  Q        E  S S E  E  S S E  E  S S  
---------------------6~----|-----------------------------|
--------------6h--7--------|-----------------------------|
--5--3--5--6---------------|--5--5-5-5--5--5-5-5--5--5-5-|
---------------------------|-----------------------------|


  E  E  S S E  E  E  E  E     E  S S E  E  S S E  S S E   
---------------------------|-----------------------------|
---------------------------|-----------------------------|
--5--5--5-5-5--5--6--5-----|--5--5-5-5--5--5-5-5--5-5-5--|
------------------------6--|-----------------------------|


  E  E  E  E  E   E  Q        E  S S E  E  S S E  E  S S  
---------------------6~----|-----------------------------|
--------------6h--7--------|-----------------------------|
--5--3--5--6---------------|--5--5-5-5--5--5-5-5--5--5-5-|
---------------------------|-----------------------------|


  E  E  S S E  E  E  E  E     E  S S E  E  S S E  S S E   
---------------------------|-----------------------------|
---------------------------|-----------------------------|
--5--5--5-5-5--5--6--5-----|--5--5-5-5--5--5-5-5--5-5-5--|
------------------------6--|-----------------------------|


  E  E  E  E  E   E  Q        E  S S E  E  S S E  E  S S  
---------------------6~----|-----------------------------|
--------------6h--7--------|-----------------------------|
--5--3--5--6---------------|--5--5-5-5--5--5-5-5--5--5-5-|
---------------------------|-----------------------------|


  E  E  S S E  E  E  E  E     E  S S E  E  S S E  S S E   
---------------------------|-----------------------------|
---------------------------|-----------------------------|
--5--5--5-5-5--5--6--5-----|--5--5-5-5--5--5-5-5--5-5-5--|
------------------------6--|-----------------------------|


  E  E  E  E  E   E  Q        E  S S E  E  Q    Q       E  S S E  E  Q    Q     
---------------------6~----|-------------------------|-------------------------|
--------------6h--7--------|-------------------------|-------------------------|
--5--3--5--6---------------|--3--3-3-3--3--L----3----|--6--6-6-6--6--L----6----|
---------------------------|-------------------------|-------------------------|


  E  S S E  E  S S E  E  S S    E  E  S S E  E  E  E  E   
-----------------------------|---------------------------|
-----------------------------|---------------------------|
--5--5-5-5--5--5-5-5--5--5-5-|--5--5--5-5-5--5--6--5-----|
-----------------------------|------------------------6--|


  E  S S E  E  S S E  S S E     E  E  E  E  E   E  Q      
-----------------------------|---------------------6~----|
-----------------------------|--------------6h--7--------|
--5--5-5-5--5--5-5-5--5-5-5--|--5--3--5--6---------------|
-----------------------------|---------------------------|


  E  S S E  E  S S E  E  S S    E  E  S S E  E  E  E  E   
-----------------------------|---------------------------|
-----------------------------|---------------------------|
--5--5-5-5--5--5-5-5--5--5-5-|--5--5--5-5-5--5--6--5-----|
-----------------------------|------------------------6--|


  E  S S E  E  S S E  S S E     E  E  E  E  E   E  Q      
-----------------------------|---------------------6~----|
-----------------------------|--------------6h--7--------|
--5--5-5-5--5--5-5-5--5-5-5--|--5--3--5--6---------------|
-----------------------------|---------------------------|


  E  S S E  E  Q    Q       E  S S E  E  Q    Q     
-------------------------|-------------------------|
-------------------------|-------------------------|
--3--3-3-3--3--L----3----|--6--6-6-6--6--L----6----|
-------------------------|-------------------------|


  E  S S E  E  S S E  E  E     E  E  E  E  Q    Q       E  S S E  E  Q    Q     
----------------------------|------------------------|-------------------------|
----------------------------|-----7------------------|-------------------------|
--5--5-5-5--5--5-5-5--5--5--|--5-----5--5--5----5----|--3--3-3-3--3--L----3----|
----------------------------|------------------------|-------------------------|


  E  S S E  E  Q    Q       E  S S E  E  S S E  E  E     E  E  E  E  Q    Q     
-------------------------|----------------------------|------------------------|
-------------------------|----------------------------|-----7------------------|
--6--6-6-6--6--L----6----|--5--5-5-5--5--5-5-5--5--5--|--5-----5--5--5----5----|
-------------------------|----------------------------|------------------------|


  E  S S E  E  Q    Q       E  S S E  E  Q    Q       E  S S E  E  Q    Q     
-------------------------|-------------------------|-------------------------|
-------------------------|-------------------------|-------------------------|
--5--5-5-5--5--L----5----|--6--6-6-6--6--L----6----|--8--8-8-8--8--L----8----|
-------------------------|-------------------------|-------------------------|


  E  S S E  E  Q    Q       E  S S E  E  E  E  Q       E  S S E  E  E  E  Q     
-------------------------|--------------------------|--------------------------|
-------------------------|------------7-------------|------------8-------------|
--6--6-6-6--6--L----6----|--5--5-5-5-----5--5--5----|--6--6-6-6-----6--6--6----|
-------------------------|--------------------------|--------------------------|


  E  S S E   E  E  E  Q       E  S S E  E  E  E  Q     
---------------------------|--------------------------|
------------10-------------|------------8-------------|
--8--8-8-8------8--8--8----|--6--6-6-6-----6--6--6----|
---------------------------|--------------------------|


  E  S S E  E  S S E  E  S S    E  E  S S E  E  E  E  E   
-----------------------------|---------------------------|
-----------------------------|---------------------------|
--5--5-5-5--5--5-5-5--5--5-5-|--5--5--5-5-5--5--6--5-----|
-----------------------------|------------------------6--|


  E  S S E  E  S S E  E  S S    E  E  S S E  E  E  E  E   
-----------------------------|---------------------------|
-----------------------------|---------------------------|
--5--5-5-5--5--5-5-5--5--5-5-|--5--5--5-5-5--5--6--5-----|
-----------------------------|------------------------6--|


  E  S S E  E  S S E  E  S S    E  E  S S E  E  E  E  E   
-----------------------------|---------------------------|
-----------------------------|---------------------------|
--5--5-5-5--5--5-5-5--5--5-5-|--5--5--5-5-5--5--6--5-----|
-----------------------------|------------------------6--|


  E  S S E  E  S S E  E  S S    E  E  S S E  E  E  E  E   
-----------------------------|---------------------------|
-----------------------------|---------------------------|
--5--5-5-5--5--5-5-5--5--5-5-|--5--5--5-5-5--5--6--5-----|
-----------------------------|------------------------6--|


  E  S S E  E  Q    Q       E  S S E  E  Q    Q     
-------------------------|-------------------------|
-------------------------|-------------------------|
--3--3-3-3--3--L----3----|--6--6-6-6--6--L----6----|
-------------------------|-------------------------|


  E  S S E  E  S S E  E  S S    E  E  S S E  E  E  E  E   
-----------------------------|---------------------------|
-----------------------------|---------------------------|
--5--5-5-5--5--5-5-5--5--5-5-|--5--5--5-5-5--5--6--5-----|
-----------------------------|------------------------6--|


  E  S S E  E  S S E  E  S S    E  E  S S E  E  E  E  E   
-----------------------------|---------------------------|
-----------------------------|---------------------------|
--5--5-5-5--5--5-5-5--5--5-5-|--5--5--5-5-5--5--6--5-----|
-----------------------------|------------------------6--|


  E  S S E  E  S S E  E  S S    E  E  S S E  E  E  E  E   
-----------------------------|---------------------------|
-----------------------------|---------------------------|
--5--5-5-5--5--5-5-5--5--5-5-|--5--5--5-5-5--5--6--5-----|
-----------------------------|------------------------6--|


  E  S S E  E  S S E  E  S S    E  E  S S E  E  E  E  E   
-----------------------------|---------------------------|
-----------------------------|---------------------------|
--5--5-5-5--5--5-5-5--5--5-5-|--5--5--5-5-5--5--6--5-----|
-----------------------------|------------------------6--|


  E  S S E  E  S S E  E  S S    E  E  S S E  E  E  E  E   
-----------------------------|---------------------------|
-----------------------------|---------------------------|
--5--5-5-5--5--5-5-5--5--5-5-|--5--5--5-5-5--5--6--5-----|
-----------------------------|------------------------6--|


  E  S S E  E  Q    Q       E  S S E  E  Q    Q     
-------------------------|-------------------------|
-------------------------|-------------------------|
--3--3-3-3--3--L----3----|--6--6-6-6--6--L----6----|
-------------------------|-------------------------|


  E  S S E  E  S S E  E  S S    E  E  S S E  E  E  E  E   
-----------------------------|---------------------------|
-----------------------------|---------------------------|
--5--5-5-5--5--5-5-5--5--5-5-|--5--5--5-5-5--5--6--5-----|
-----------------------------|------------------------6--|


  E  E  E  E  E  E  E  E     E  E  E  E  E   E  E   E   
--------------------------|----------------------------|
--7--------8--------5-----|-----7--------7p--5--7p--5--|
-----5--5-----5--5-----5--|--5-----5--5----------------|
--------------------------|----------------------------|


  E  E  E  E  E  E  E  E     E  E  E  E  E   E  E   E   
--------------------------|----------------------------|
--7--------8--------5-----|-----7--------7p--5--7p--5--|
-----5--5-----5--5-----5--|--5-----5--5----------------|
--------------------------|----------------------------|


  E  E  E  E  E  E  E  E     E  E  E  E  E   E  E   E   
--------------------------|----------------------------|
--5--------6--------3-----|-----5--------5p--3--5p--3--|
-----3--3-----3--3-----3--|--3-----3--3----------------|
--------------------------|----------------------------|


  E  E  E  E  E  E  E  E     E  E  E  E  Q    Q       E  E  E  E  E  E  E  E   
--------------------------|------------------------|--------------------------|
--3--------3--------3-----|-----3--------1----1----|--7--------8--------5-----|
-----1--1-----1--1-----1--|--1-----1--1------------|-----5--5-----5--5-----5--|
--------------------------|------------------------|--------------------------|


  E  E  E  E  E   E  E   E     E  E  E  E  E  E  E  E   
----------------------------|--------------------------|
-----7--------7p--5--7p--5--|--7--------8--------5-----|
--5-----5--5----------------|-----5--5-----5--5-----5--|
----------------------------|--------------------------|


  E  E  E  E  E   E  E   E     E  E  E  E  E  E  E  E   
----------------------------|--------------------------|
-----7--------7p--5--7p--5--|--5--------6--------3-----|
--5-----5--5----------------|-----3--3-----3--3-----3--|
----------------------------|--------------------------|


  E  E  E  E  E   E  E   E     E  E  E  E  E  E  E  E   
----------------------------|--------------------------|
-----5--------5p--3--5p--3--|--3--------3--------3-----|
--3-----3--3----------------|-----1--1-----1--1-----1--|
----------------------------|--------------------------|


  E  E  E  E  Q    Q       E  E  E  E  E  E  E  E   
------------------------|--------------------------|
-----3--------1----1----|--7--------8--------5-----|
--1-----1--1------------|-----5--5-----5--5-----5--|
------------------------|--------------------------|


  E  E  E  E  E   E  E   E     E  E  E  E  E  E  E  E   
----------------------------|--------------------------|
-----7--------7p--5--7p--5--|--7--------8--------5-----|
--5-----5--5----------------|-----5--5-----5--5-----5--|
----------------------------|--------------------------|


  E  E  E  E  E   E  E   E     E  E  E  E  E  E  E  E   
----------------------------|--------------------------|
-----7--------7p--5--7p--5--|--5--------6--------3-----|
--5-----5--5----------------|-----3--3-----3--3-----3--|
----------------------------|--------------------------|


  E  E  E  E  E   E  E   E     E  E  E  E  E  E  E  E   
----------------------------|--------------------------|
-----5--------5p--3--5p--3--|--3--------3--------3-----|
--3-----3--3----------------|-----1--1-----1--1-----1--|
----------------------------|--------------------------|


  E  E  E  E  Q    Q       E  E  E  E  E  E  E  E   
------------------------|--------------------------|
-----3--------1----1----|--7--------8--------5-----|
--1-----1--1------------|-----5--5-----5--5-----5--|
------------------------|--------------------------|


  E  E  E  E  E   E  E   E     E  E  E  E  E  E  E  E   
----------------------------|--------------------------|
-----7--------7p--5--7p--5--|--7--------8--------5-----|
--5-----5--5----------------|-----5--5-----5--5-----5--|
----------------------------|--------------------------|


  E  E  E  E  E   E  E   E     E  E  E  E  E  E  E  E   
----------------------------|--------------------------|
-----7--------7p--5--7p--5--|--5--------6--------3-----|
--5-----5--5----------------|-----3--3-----3--3-----3--|
----------------------------|--------------------------|


  E  E  E  E  E   E  E   E     E  E  E  E  E  E  E  E   
----------------------------|--------------------------|
-----5--------5p--3--5p--3--|--3--------3--------3-----|
--3-----3--3----------------|-----1--1-----1--1-----1--|
----------------------------|--------------------------|


  E  E  E  E  Q    Q       E  S S E  E  Q    Q       E  S S E  E  Q    Q     
------------------------|-------------------------|-------------------------|
-----3--------1----1----|-------------------------|-------------------------|
--1-----1--1------------|--5--5-5-5--5--L----5----|--6--6-6-6--6--L----6----|
------------------------|-------------------------|-------------------------|


  E  S S E  E  Q    Q       E  S S E  E  Q    Q       E  S S E  E  Q    Q     
-------------------------|-------------------------|-------------------------|
-------------------------|-------------------------|-------------------------|
--8--8-8-8--8--L----8----|--6--6-6-6--6--L----6----|--5--5-5-5--5--L----5----|
-------------------------|-------------------------|-------------------------|


  E  S S E  E  Q    Q       E  S S E  E  Q    Q       E  S S E  E  Q    Q     
-------------------------|-------------------------|-------------------------|
-------------------------|-------------------------|-------------------------|
--6--6-6-6--6--L----6----|--8--8-8-8--8--L----8----|--6--6-6-6--6--L----3----|
-------------------------|-------------------------|-------------------------|


  W                    W                   W                  
--------------------|-------------------|-------------------||
--------------------|-------------------|-------------------||
--5S----------------|-------------------|-------------------||
--------------------|-------------------|-------------------||




Duration Legend
---------------
W - whole
H - half
Q - quarter
E - 8th
S - 16th
T - 32nd
X - 64th
. - note dotted
|-n-|  - n-tuplets


Tablature Legend
----------------
L - tied note
x - dead note
g - grace note
(n) - ghost note
> - accentuded note
NH - natural harmonic
AH - artificial harmonic
TH - tapped harmonic
SH - semi harmonic
PH - pitch harmonic
h - hammer on
p - pull off
b - bend
br - bendRelease
pb - preBend
pbr - preBendRelease
brb - bendReleaseBend
\n/ - tremolo bar dip
\n - tremolo bar dive
-/n - tremolo bar Release up
/n\ - tremolo bar inverted dip
/n - tremolo bar return
-\n - tremolo bar Release down
S - shift slide
s - legato slide
/ -  slide into from below or out of upwards
\ -  slide into from above or out of downwards
~ - vibrato
W - wide vibrato
tr - trill
TP - tremolo picking
T - tapping
S - slap
P - pop
< - fade in
^ - brush up
v - brush down





Comments


Popular Iced Earth tabs & chords
Burnt Offerings Bass Tabs
Dark Saga 2 Bass Tabs
Life And Death Bass Tabs
Number Of The Beast Bass Tabs
When The Night Falls Bass Tabs
Winter Nights Bass Tabs
Solitude Tabs
Ten Thousand Strong Tabs
The Hunter 1 Tabs
The Revealing Tabs


Song lyrics



↑ Back to top | Tablatures and chords are parodies/interpretations of the original songs. You may use it for private study, scholarship, research or language learning purposes only
© 2014 AZChords.com Contact us | Privacy policy | DMCA | Add/correct tabs | Request tabs | Top 50 tabs