>
 >
A Question Of Heaven

A Question Of Heaven Guitar Tabs

Iced Earth - A Question Of Heaven chords, tabs, tablatures, lyrics

Guitar lessons | Add/correct | Request | Top 50 tabs Artists:  A B C D E F G H I J K L M N O P Q R S T U V W X Y Z 0-9

A Question Of Heaven Guitar Tabs – Iced Earth

CD, Sheet music, Poster

Do you like A Question Of Heaven? Share with your friends now
Bass TabsBass Tabs v2Bass Tabs v3Tabs
Tuning, D#,G#,C#,F#

F#||------------------|-------------------||-------------------|
C#||------------------|------------------*||-------------------|
G#||------------------|------------------*||--7----------------|
D#||------------------|-------------------||-------------------|   

------------------7--|-------------------|--------------7--5--|
------------7--9-----|-------------------|--------------------|
---------------------|--5----------------|--------------------|
---------------------|-------------------|--------------------|
                                                               
---------------5----|-------------------|----------------------|
--------------------|-------------------|----------------------|
--3-----------------|--3----------------|----------------------|
--------------------|-------------------|--3--------2----3--2--|
                                                                
|---------------------|------------------7--|-------------------|
|*--------------------|------------7--9-----|-------------------|
|*---------7----------|---------------------|--5----------------|
|---0-----------------|---------------------|-------------------|
                                                             
--------------7--5--|---------------5----|-------------------|
--------------------|--------------------|-------------------|
--------------------|--3-----------------|--3----------------|
--------------------|--------------------|-------------------|
  
--------------------||-----------------------|----------------------|
-------------------*||*----------------------|----------------------|
-------------------*||*-----------7------7---|-------------7------7-|
--3--------2----3--2||0--0-0-0-0-------------|--0--0-0-0-0----------|
  
----------------------|----------------------|----------------------|
----------------------|----------------------|----------------------|
-------------5------5-|-------------5------5-|-------------3------3-|
--0--0-0-0-0----------|--0--0-0-0-0----------|--0--0-0-0-0----------|
 
-----------------------|--------------------||-----------------------|
-----------------------|-------------------*||*----------------------|
-----------5------5----|-------------------*||*----------------------|
0--0-0-0-0-------------|--3--------2----3--2||---0-0-0-0-0-0-0-------|
                             5x                           
-----------------------------||--------------------------|
----------------------------*||*-------------------------|
----------------------------*||*-------------7------7----|
--0-0-0-0-0-0-0----0-0-1-----||---0--0-0-0-0-------------|

----------------------|----------------------|----------------------|
----------------------|----------------------|----------------------|
---------7------7-----|---------5------5-----|---------5------5-----|
--0--0-0-0-0----------|--0--0-0-0-0----------|--0--0-0-0-0----------|

----------------------|----------------------|--------------------||
----------------------|----------------------|-------------------*||
-----------3------3---|-----------5------5---|-------------------*||
0-0-0-0-0-------------|0--0-0-0-0------------|3-------2----3--2---||
                                                       3x
--------------------------|-----------------------------||
*-------------------------|----------------------------*||
*-------------------------|----------------------------*||
---0-0-0-0-0-0-0----------|--0-0-0-0-0-0-0----0-0-1-----||
   
-----------------------|-----------------------|-----------------------|
*----------------------|-----------------------|-----------------------|
*----------7------7----|------------7-----7----|-------------5------5--|
0--0-0-0-0-------------|0--0-0-0-0-------------|0--0-0-0-0-------------| 

-----------------------|-----------------------|-----------------------|
-----------------------|-----------------------|-----------------------|
------------5------5---|------------3------3---|-----------5-------5---|
0--0-0-0-0-------------|0--0-0-0-0-------------|0--0-0-0-0-------------|
                                                                    
-----------------------||-------------------------|------------------|
----------------------*||-------------------------|------------------|
----------------------*||-------------------------|------------------|
--3--------2----3--2---||--0-0-0-0-0-0-0----------|------------------|
 
---------------|----------------|---------------|----------------|
---------------|----------------|---------------|----------------|
---------------|----------------|---------------|----------------|
---------------|--0-------------|---------------|--0-------------|
   
---------------|----------------|-----------------|----------------|
---------------|----------------|-------7h---9----|----------------|
---------------|----------------|-----------------|----------------|
---------------|--0-------------|-----------------|--0-------------|
                                                                  
-------7--9--7----------||--------------------|------------------|
----9-----------7----9--||*-------------------|------------------|
------------------------||*-------------------|------------------|
------------------------||---0----------------|------------------|
  
----------------|---------------|----------------|----------------|
----------------|---------------|----------------|----------------|
----------------|---------------|--5-------------|-------------5--|
--3-------------|---------------|----------------|----------------|
                                                              
---------------------|-------------------||-------------------|
---------------------|------------------*||-------------------|
----7----------------|------------------*||-------------------|
-------0----0--------|-------------------||--0----------------|

---------------|----------------|---------------|----------------|
---------------|----------------|---------------|----------------|
---------------|----------------|---------------|--5-------------|
---------------|--3-------------|---------------|----------------|

---------------------|--------------------9--|------------------|
---------------------|-----------------9-----|------------------|
------5----9----5----|--7-----------7--------|------------------|
---------------------|-----0-----------------|------------------|
   
|-----------------|---------------|----------------|---------------|
|*----------------|---------------|----------------|---------------|
|*----------------|---------------|----------------|---------------|
|---0-------------|---------------|--3-------------|---------------|
                                                                 
-------------------|----------------------|----------------------|
-------------------|----------------------|----------------------|
--5----------------|------5h-9----5----5--|--5h-7----------------|
-------------------|----------------------|--------0----0--------|
                                                                
-------------------||---------------------|----------------------|
------------------*||-----7--9------------|----------------------|
------------------*||--7------------------|----------------------|
-------------------||---------------------|--0----0--0--0--------|
                                                             
------------------|----------------------|------------------|
------------------|----------------------|------------------|
------------------|----------------------|------------------|
------------------|--3----3--3--3--------|------------------|
                                                                 
----------------------|------------------|----------------------|
----------------------|------------------|----------------------|
--5----5--5--5--------|------------------|----------------------|
----------------------|------------------|--0----0--0--0--------| 

------------------|----------------------|------------------|
------------------|----------------------|------------------|
------------------|----------------------|------------------|
------------------|--0----0--0--0--------|------------------|
                                                                 
----------------------|------------------|----------------------|
----------------------|------------------|----------------------|
----------------------|------------------|--5----5--5--5--------|
--3----3--3--3--------|------------------|----------------------|
                                                           
------------------|----------------------|------------------|
------------------|----------------------|------------------|
------------------|----------------------|------------------|
------------------|--0----0--0--0--------|------------------|
                                                                 
----------------------|------------------|----------------------|
----------------------|------------------|----------------------|
----------------------|------------------|----------------------|
--0----0--0--0--------|------------------|--3----3--3--3--------|
                                                            
------------------|----------------------|-------------------|
------------------|----------------------|-------------------|
------------------|--5----5--5--5--------|----------------5--|
------------------|----------------------|-------------------|
                                                               
---------------------|------------------|----------------------|
---------------------|------------------|----------------------|
----7--7-------------|------------------|----------------------|
------------0--------|------------------|--0----0--0--0--------|
                                                            
------------------|----------------------|------------------|
------------------|----------------------|------------------|
------------------|----------------------|------------------|
------------------|--3----3--3--3--------|------------------|
                                                                 
----------------------|-------------------|----------------------|
----------------------|-------------------|----------------------|
--5----5--5--5--------|----------------5--|----7--7-----------5--|
----------------------|-------------------|------------0---------|
                                                                   
-----------------------||-----------------------|------------------|
-----------------------||*----------------------|------------------|
----7--7---------------||*----------------------|------------------|
------------0----0--0--||---0----0--0--0--------|------------------|
                                                                
----------------------|------------------|----------------------|
----------------------|------------------|----------------------|
----------------------|------------------|--5----5--5--5--------|
--3----3--3--3--------|------------------|----------------------|
                                                              
------------------|----------------------|-------------------||
------------------|----------------------|------------------*||
------------------|----------------------|------------------*||
------------------|--0----0--0--0--------|-------------------||
                                                                  
-----------------------|------------------|----------------------|
*----------------------|------------------|----------------------|
*----------------------|------------------|----------------------|
---0----0--0--0--------|------------------|--3----3--3--3--------|
                                                           
------------------|----------------------|------------------|
------------------|----------------------|------------------|
------------------|--5----5--5--5--------|------------------|
------------------|----------------------|------------------|
                                         3x                       
----------------------|-------------------||----------------------|
----------------------|------------------*||----------------------|
----------------------|------------------*||----------------------|
--0----0--0--0--------|-------------------||--0----0--0--0--------|
                                                            
------------------|----------------------|------------------|
------------------|----------------------|------------------|
------------------|----------------------|------------------|
------------------|--3----3--3--3--------|------------------|
                                                                 
----------------------|------------------|----------------------|
----------------------|------------------|----------------------|
--5----5--5--5--------|------------------|----------------------|
----------------------|------------------|--0----0--0--0--------|
                                                           
------------------|----------------------|------------------|
------------------|----------------------|------------------|
------------------|----------------------|------------------|
------------------|--0----0--0--0--------|------------------|
                                                                
----------------------|------------------|----------------------|
----------------------|------------------|----------------------|
----------------------|------------------|--5----5--5--5--------|
--3----3--3--3--------|------------------|----------------------|
                                                             
------------------|----------------------|------------------||
------------------|----------------------|------------------||
------------------|----------------------|------------------||
------------------|--0----0--0--0--------|------------------||





Comments


Popular Iced Earth tabs & chords
A Charge To Keep Bass Tabs
Life And Death 2 Bass Tabs
The Pierced Spirit Bass Tabs
Watching Over Me Drum Tabs
Dead Babies Tabs
Declaration Day Tabs
Divide And Devour Tabs
Iced Earth 1 Tabs
When The Night Falls Tabs
Winter Nights Tabs


Song lyrics



↑ Back to top | Tablatures and chords are parodies/interpretations of the original songs. You may use it for private study, scholarship, research or language learning purposes only
© 2014 AZChords.com Contact us | Privacy policy | DMCA | Add/correct tabs | Request tabs | Top 50 tabs