» » »

Feed A Cat To Your Cobra Bass tabs (ver.1)

Artists:  A B C D E F G H I J K L M N O P Q R S T U V W X Y Z # 

Feed A Cat To Your Cobra Bass tabs (ver.1)

Icarus Line
Rating:
0/5 (0 votes)

Hard to play? Try these video lessons and learn fast.
                Tuning - Drop D

h - Hammer note
~ - Let the note ring 
x - Left hand mute 


Intro
G|-----------------------------|
D|-----------------------------|
A|---7-6-5-x-5-----------------|
D|--------------77777777-------|



"Taking her back to your room, you start to wrestle
Never pushing it over the line 
Snake in the grass feels every tender muscle
Assures you she's doing fine" 



Bridge (1)
G|-----------------------------|
D|-------------------5---------|
A|---------------0-4-----------|
D|--7-----7-7----------5-7-----|



"Safe in body, safe in mind" 


Bridge (2)
G|-----------------------------|
D|-------------------5---------|
A|---------------0-4-----------|
D|--7-----7-7----------5-7-----|



"Who oughta make you mine?" 


Breakdown
G|----------------------------------------|
D|----------------------------------------|
A|----------------------------------------|
D|-5555555555555555-5555-5555-5555-5555-3~|




Slow part

G|----------------------------------|
D|---7---------7--------------------|
A|-5-------------5------------------|
D|-----5h7p5------------------------|


"Let me know if you can breathe
I'll push the pillow down
Like so many before you, you can't see
why we keep you around
Dwell in the heart of negativity
But not so deep that you drown
Join a lonely list of angels
That wear that famous faceless frown
Faceless fool"


Last Section

G|-------------------------------|
D|-------------------------------|
A|-------------------------------|
D|-88-88-88-88-88-88-88-88-88-88-|


G|--------------------------------------|
D|--------------------------------------|
A|--------------------------0-1-2-1-----|
D|-88-5-7-5-222-88-5-7-5-222--------2-2-|


"You never want to be much closer to me
Baby believe me
This is as close as you want to me to me"




G|--------------------------------------------|
D|--------------------------------------------|
A|--------------------------------------------|
D|-888-5-7-5--888-5-7-5--888-5-7-5--888-5-7-5-|



G|--------------------------------|
D|--------------------------------|
A|--------------------------------|
D|-88--88--88--88--88--88--88--88-|
            
Hard to play? Try these video lessons and learn fast. | Correct




comments powered by Disqus
↑ Back to top | Tablatures and chords are parodies/interpretations of the original songs. You may use it for private study, scholarship, research or language learning purposes only