» » »

Feed A Cat To Your Cobra Tabs (ver.2)

Artists:  A B C D E F G H I J K L M N O P Q R S T U V W X Y Z # 

Feed A Cat To Your Cobra Tabs (ver.2)

Icarus Line
Rating:
0/5 (0 votes)

Hard to play? Try these video lessons and learn fast.
                -------------------------------------------------------------------------------
                Feed a cat to your cobra - The Icarus Line
-------------------------------------------------------------------------------

Tuning: Standard

I know there is a tab up for this already but it is pretty off.
this is 98 % correct

Intro (play twice)
e|---------------------------------------------|
B|---------------------------------------------|
G|-9-8-7-x-55----------------------------------|
D|-9-8-7-x-55--77777777------------------------| X4
A|-7-6-5-x-33--77777777------------------------|
E|-------------55555555------------------------|

e|---------------------------------------------|
B|---------------------------------------------|
G|---------------------------------------------|
D|-----5-----5-5--55555555-777777--------------| X2
A|-0-4---0-4------55555555-777777--------------|
E|----------------33333333-555555--------------|

   Bridge
e|-------------------------|
B|-------------------------|
G|-------------------------|
D|-555-555-555-555-2-------|
A|-555-555-555-555-2-------|
E|-333-333-333-333-0-------|

  Slow part
e|---------------------|
B|---------------------|
G|---5-7b-----5-2------|
D|-5--------5----------| X20
A|---------------------|
E|---------------------|

  Breakdown
e|------------------------------------------------|
B|------------------------------------------------|
G|------------------------------------------------|
D|88-88-88-88-88-88-88-88-88-88-88-88-88-88-88----|
A|88-88-88-88-88-88-88-88-88-88-88-88-88-88-88----|
E|66-66-66-66-66-66-66-66-66-66-66-66-66-66-66----|

  Outro
e|---------------------|
B|---------------------|
G|---------------------|
D|88-7-5-7-22222222----| X8
A|88-7-5-7-22222222----|
E|66-5-3-5-00000000----|

e|---------------------|
B|---------------------|
G|---------------------|
D|88-7-5-7-------------| x8
A|88-7-5-7-------------|
E|66-5-3-5-------------|

e|----------------|
B|----------------|
G|----------------|
D|88-88-88-88-88--|
A|88-88-88-88-88--|
E|66-66-66-66-66--|
and end


If you need any help or want to request a tab Pm me or Email me.

************************************

| /   slide up
| \   slide down
| h   hammer-on
| p   pull-off
| ~   vibrato
| +   harmonic
| x   Mute note
| b   Bend
| pb  Pre-bend
| br  Bend release
| pbr Pre-bend release
| brb Bend release bend

************************************
            
Hard to play? Try these video lessons and learn fast. | Correct




comments powered by Disqus
↑ Back to top | Tablatures and chords are parodies/interpretations of the original songs. You may use it for private study, scholarship, research or language learning purposes only