» » »

I Can Make A Mess Like Nobodys Business, Old Man Tabs (ver.1)

Artists:  A B C D E F G H I J K L M N O P Q R S T U V W X Y Z # 
Rating:
5/5 (1 vote)
Old Man lessons Tabs too difficult? Try these video lessons and learn fast
                (Intro)
I Can Make A Mess Like Nobodys Business - Old Man........................... (intro)


Standard Tuning: EADGBe


In the intro, the bottom tab is played over and over again the whole time:

E|----------------|
B|--------2-0-----|
G|------4---------|
D|----4-----------|
A|----------------|
E|----------------|


Later, he plays this to begin. Not 100% but pretty close. Let me know what you 
think and feel free to take this and correct it:

E|-------------------------------------------------------------------------------------|
B|-------------------------------------------4-------------4---------------------------|
G|-----------4-3-4-3-4-3-4-3-------3---4-6-------4-----------4----4--------------------|
D|---------4-----------------4---4---4-----4---4-----4-4\6-----6-------4----------4----|
A|--2--4\6-----------------------------------------2---------------2-------------------|
E|-----------------------------4-------------------0---------------------2----4-6------|


After playing the above tab, it continues and he plays this next:

E|---------------------------------7\11-----9\7-----------|
B|-----------9\11----11\12----9\7-----------------5\7-----|
G|----6\8-------------------------------------------------|
D|--------------------------------------------------------|
A|--------------------------------------------------------|
E|--------------------------------------------------------|
            

comments powered by Disqus
↑ Back to top | I Can Make A Mess Like Nobodys Business Tabs for Old Man. Lyrics for acoustic guitar and electric guitar. Tablatures and chords are parodies/interpretations of the original songs. You may use it for private study, scholarship, research or language learning purposes only