>
 >
Muddy Jesus

Muddy Jesus Guitar Tabs

Ian Moore - Muddy Jesus chords, tabs, tablatures, lyrics

Guitar lessons | Add/correct | Request | Top 50 tabs Artists:  A B C D E F G H I J K L M N O P Q R S T U V W X Y Z 0-9

Muddy Jesus Guitar Tabs – Ian Moore

CD, Sheet music, Poster

Do you like Muddy Jesus? Share with your friends now
Bass TabsChordsTabsUkulele
-------------------------------------------------------------------------------
-------------------------------------------------------------------------------


Tuning: Drop D (electric guitars), Open D (acoustic slide)


================================================================================


Pre-chorus - rhythm - left

      E.  S S S E  H           W                 3x  E.  S S S E  H         
E||---3---3-----3--L--------|--L-----------------||--3---3-----3--L--------|
B||---5---5-x-x-3--L--------|--L-----------------||--5---5-x-x-3--L--------|
G||*--5---5-x-x-0--L--------|--L----------------*||--5---5-x-x-0--L--------|
D||*------------------------|-------------------*||------------------------|
A||-------------------------|--------------------||------------------------|
D||-------------------------|--------------------||------------------------|


  E  E   H        Q      
--3--L\----------------||
--3--L\----------------||
--0--0-----------------||
-----------------------||
-----------------------||
-----------------------||



Pre-chorus - rhythm - right

      Q    S S E  H           W                 3x  Q    S S E  H          
E||------------------------|--------------------||-----------------------||
B||------------------------|--------------------||-----------------------||
G||*-----------------------|-------------------*||-----------------------||
D||*-----------5--L--------|--L----------------*||-----------5--L--------||
A||---3----x-x-5--L--------|--L-----------------||--3----x-x-5--L--------||
D||---3----x-x-5--L--------|--L-----------------||--3----x-x-5--L--------||



Post solo & Outro

      S  E  S  S S S  S S E.    Q        S  E  S S  S S  S S E.   E   E      
E||-----------------------------------|------------------------------------||
B||-----------------------------------|------------------------------------||
G||*----------------------------------|-----------------------------------*||
D||*----------------------------------|----------------------3~---L-------*||
A||---3h-5--5~-L-0-3h-5---5~----------|--3h-5--5-L~-0----------------------||
D||----------------------------12\----|---------------3h-4-5---------12\---||


      S   E   S  E    S   S S  E.    Q      
||-----------------------------------------|
||-----------------------------------------|
||*----------------------------------------|
||*--10h-12--12--L~--10h-12---12~----------|
||-----------------------------------------|
||----------------------------------12\----|


   S   E   S  E    S   S   S  E.    S S S  S    
----------------------------------------------||
----------------------------------------------||
-----------------------------10~----L--------*||
--10h-12--12--L~---------------------------0-*||
------------------10h-11h-12------------------||
--------------------------------------0-3/----||


   S   S  S  S  E   S  S S S    E   S  E   S  
---------------------------------------------|
---------------------------------------------|
-----------------------------------10--------|
--10h-12-10-12--L\--------------------12--12-|
--------------------3h-5-3-5-8g12------------|
---------------------------------------------|


   E   S  S S S E   S  S  S  S  Q         E   E  Q    H          
--------------------------------------|------------------------||
-------------------13-15-13-15--L~----|---L\-------------------||
--------------------------------------|------------------------||
---L\---------------------------------|------------------------||
-------3h-5-3-5-5---------------------|------------------------||
--------------------------------------|------------------------||


============================================================================


Acoustic Slide

      Intro - m.9                                                                     
           \1/        \1/                                                   
      E.   S  Q    E  E   Q        Q      S  S  E    S  S  E    S  E    S   
E ||---------------------------|-------------------------------------------|
B ||------10--L----L--1---L----|---------------10~---L----10~---L-10~------|
G#||------10--L----L--1---L----|------------10---------10--------------10s-|
E ||------------------1---L----|--10~-----L--------------------------------|
B ||---------------------------|--10~-----L--------------------------------|
E ||---------------------------|-------------------------------------------|


   \1/                                                                \1/ 
   E     S   S   S  S  E    Q     E   E       Q.       E    Q     E   E   
------------------------------------------|------------------------------|
------------------------------------------|------------------------------|
--12pb--10S-12b--L-10-12b---L-----L--10~--|---L~-------------------------|
------------------------------------------|-----------10~---L-----L--10--|
------------------------------------------|-----------10~---L-----L--10--|
------------------------------------------|------------------------------|


          \1/                                                          
   Q.     E   Q     S  S  E       E      E    S  S  E    Q      Q      
-------------------10----10~--|---L-----------------------------------|
----------1---L-------10------|---------------------------------------|
----------1---L---------------|------10g12b---L-10-12b--12b----10~----|
---L------1---L---------------|---------------------------------------|
---L--------------------------|---------------------------------------|
------------------------------|---------------------------------------|


                                                    \1/       
   E   E    E   E   E    E   E    E      H          H         
---------------10--------------------|-----------------------|
-----------10--------------------10--|-----------------------|
-------8b--10------11b--10--11b--10--|--10~--------10--------|
--10\--8b--10-------x----------------|--10~--------10--------|
--10\---------------x----------------|--10~--------10--------|
-------------------------------------|-----------------------|


            \1/            
   S  E.    H.             
-------------------------||
-----10\~---9------------||
---L-10\~---9------------||
---L---------------------||
---L---------------------||
-------------------------||



       Guitar Solo - m.64                                                        
       \1/                          \1/                          
       H         E   E    Q         H         E   E    E    E    
E ||----------------------------|-------------------------------|
B ||--10---------L--------------|--10---------L-------10~-------|
G#||---------------------10~----|----------------10~-------10~--|
E ||----------------10~---------|-------------------------------|
B ||----------------------------|-------------------------------|
E ||----------------------------|-------------------------------|


   \1/                                \1/                         
   H         E   E    Q         E.    S   Q    E   E    E    E    
----------------------------|------------------------------------|
--10---------L--------------|--------------------------10~-------|
---------------------10~----|--10~---10---L-----------------10~--|
----------------10~---------|--10~---10---L-------10~------------|
----------------------------|------------------------------------|
----------------------------|------------------------------------|


   \1/                          \1/                          
   H         E   E    Q         H         E   E    E    E    
----------------------------|-------------------------------|
--10---------L--------------|--10---------L-------10~-------|
---------------------10~----|----------------10~-------10~--|
----------------10~---------|-------------------------------|
----------------------------|-------------------------------|
----------------------------|-------------------------------|


   \1/                             \1/       <                               
   H         E   E    E    E       H         H            W                  
-------------------------------|----------------------|--------------------||
--10---------L-------10~-------|--10--------10--------|---L----------------||
--------------------------10~--|----------------------|--------------------||
----------------10~------------|----------------------|--------------------||
-------------------------------|----------------------|--------------------||
-------------------------------|----------------------|--------------------||



       Outro - m.109                                                     
       \1/                         \1/                         
       H        E   E    Q         H         E   E    E    E   
E ||---------------------------|------------------------------|
B ||--10----------------13~----|--13---------L-------10~------|
G#||--10----------------13~----|--13---------L------------10--|
E ||--10-----------13~---------|--13---------L--10~-----------|
B ||---------------------------|------------------------------|
E ||---------------------------|------------------------------|


   \1/                         \1/                         
   H        E   E    Q         H         E   E    E    E   
---------------------------|------------------------------|
---------------------------|--13---------L-------10~------|
--------------------13~----|--13---------L------------10--|
--10-----------13~---------|--13---------L--10~-----------|
--10-----------------------|------------------------------|
---------------------------|------------------------------|


   \1/                       
   H        E   E    Q       
---------------------------||
---------------------------||
--------------------13~----||
--10-----------13~---------||
--10-----------------------||
---------------------------||


=================================================================================


Lead Guitar

     Pre-chorus 1 - m.27                                                                    
     Q    E  E  H            Q.      E   H           H        Q    E   E   
E||-----------------------|-----------------------|-----------------------|
B||-----------------------|-----------------------|-----------------------|
G||----------5--7~--------|--7\------7\-----------|----------------7~--5--|
D||-----------------------|-----------------------|-----------------------|
A||-----------------------|-----------------------|-----------------------|
D||-----------------------|-----------------------|-----------------------|


   W                      Q.      E   H           S E.   E  E  Q     E  E    
----------------------|------------------------|----------------------------|
----------------------|------------------------|----------------------------|
--10b~----------------|---L-------L\-----------|--5-7~---L--L--7~----L--L\--|
----------------------|------------------------|----------------------------|
----------------------|------------------------|----------------------------|
----------------------|------------------------|----------------------------|


  H        Q     Q        S  S  S S S S S  S  S S S S E    S S  
-----------------------|---------------------------------------|
-----------------------|---------------------------------------|
-----------------------|---------------------------------------|
-----------------------|----------3----------------------------|
-----------------------|--3h-4h-5---5-0---------3--------------|
----------------12\----|----------------3h-4h-5---5-4-3b~--0-0-|


   H.             E.   S      H.            E  S  T  T  
--------------------------|----------------------------|
--------------------------|----------------------------|
--12b-------------L---11b-|---L-------------L----------|
--------------------------|--------------------------x-|
--------------------------|-----------------------x----|
--------------------------|----------------------------|


   Q      E   E   H          
---------------------------||
---------------------------||
---------------------------||
--12~-----L---L\-----------||
---------------------------||
---------------------------||


     Pre-chorus 2 - m.48                                                                         
     Q    E   E   H             Q      Q     H           H         Q     Q      
E||-------------------------|-------------------------|------------------------|
B||-------------------------|-------------------------|------------------------|
G||-------------------------|-------------------------|------------------------|
D||----------10--12~--------|--12~-----L\-------------|-----------12----12~----|
A||-------------------------|-------------------------|------------------------|
D||-------------------------|-------------------------|------------------------|


   H.             E   E      W                    Q     E   E    H         
--------------------------|-------------------|---------------------------|
--------------------------|-------------------|---------------------------|
--10b-------------L---L\--|-------------------|---------------------------|
--------------------------|-------------------|--12~-------12~---L--------|
--------------------------|-------------------|---------------------------|
--------------------------|-------------------|---------------------------|


  H        Q     Q        S  S  S S S S S  S  S S S S E    S S  
-----------------------|---------------------------------------||
-----------------------|---------------------------------------||
-----------------------|---------------------------------------||
-----------------------|----------3----------------------------||
-----------------------|--3h-4h-5---5-0---------3--------------||
----------------12\----|----------------3h-4h-5---5-4-3b~--0-0-||


   Guitar Solo - m.56                                                                         
   E.    S   E   E    S  E.    E.    S      E   E    Q     E   E    E    E    
----------------------------------------|------------------------------------|
--13b---13b--L--13b---L-13b---13b---13b-|---L--------------------------------|
----------------------------------------|------10b---L-----L---x\---x\--\5---|
----------------------------------------|----------------------x\---x\---5/--|
----------------------------------------|------------------------------------|
----------------------------------------|------------------------------------|


                                             |----3---|                   
   S  S  E    H         S  E.       E.    S  E    E   E    E   E    Q     
--------------------------------|-----------13h--15--15b--15-------------|
--15-15-18b---L--------13-15~---|--15~---15------------------------------|
--------------------------------|------------------------------x\---L----|
--------------------------------|------------------------------x\---L----|
--------------------------------|----------------------------------------|
--------------------------------|----------------------------------------|


   S  S  E    Q     Q.        S  S     S  S   E   Q      E.  S  Q      
--------17b---L--------------------|----------------------------------|
---x--x------------15br------15-15-|--18-20s-18---Lb-----L-----18b----|
---x--x----------------------------|-------------------------0--------|
-----------------------------------|-------------------------0--------|
-----------------------------------|----------------------------------|
-----------------------------------|----------------------------------|


   S   S  S  T   T  S  S  S  S  S   S  S   S  S  S  S  S  
---------13----------------------------------------------|
--13h-15----15p-13----15-13--------10--------------------|
-------------------14-------14-12b----12b-12-10----12-10-|
------------------------------------------------12-------|
---------------------------------------------------------|
---------------------------------------------------------|


   S  S  S  S  S  S  S  S   T   T  S  S  S  S  S E    
-----------------------------------------------------|
--13-10-------------12-------------------------------|
--------13-12-10----12-10~---------------------------|
-----------------12--------12p-10----12-10-----------|
----------------------------------12-------12-11-9\--|
-----------------------------------------------------|


  S S S S  S S S S S E  S E  S S    S S S S  S S S S S E.   E.  S  
---------------------------------|--------------------------------|
---------------------------------|--------------------------------|
---------------------------------|--------------------------------|
------3--------------------------|------3--------------3~---L-----|
--3-5---5~-L-0-3-5---5-----------|--3-5---5~-L--------------------|
------------------------5-0--0-0-|-------------5-3-4-5----------3-|


  S S S S  S S S S S E  S E  S S    S S S S  S S S S S E.   E.  S  
---------------------------------|--------------------------------|
---------------------------------|--------------------------------|
---------------------------------|--------------------------------|
------3--------------------------|------3--------------3~---L-----|
--3-5---5~-L-0-3-5---5-----------|--3-5---5~-L--------------------|
------------------------5-0--0-0-|-------------5-3-4-5----------3-|


   S   E   S   E   S   S S  E.    Q      
----------------------------------------|
----------------------------------------|
----------------------------------------|
--10h-12--12~--L--10h-12---12~----------|
----------------------------------------|
---------------------------------12\----|


   S   E   S   E   S   S   S  E.    E  S S  
-------------------------------------------|
-------------------------------------------|
-----------------------------10~----L------|
--10h-12--12~--L---------------------------|
------------------10h-11h-12---------------|
---------------------------------------0-0-|


   S   E   S   E   S   S S  E.    Q      
----------------------------------------|
----------------------------------------|
----------------------------------------|
--10h-12--12~--L--10h-12---12~----------|
----------------------------------------|
---------------------------------12\----|


   S   E   S   E   S   S   S  E.    Q        W                 
-----------------------------------------|--------------------|
-----------------------------------------|--------------------|
-----------------------------10~----L----|---L----------------|
--10h-12--12~--L-------------------------|--------------------|
------------------10h-11h-12-------------|--------------------|
-----------------------------------------|--------------------|


  W                   Q     Q       
-------------------|--------------||
-------------------|--------------||
--L----------------|--L-----------||
-------------------|--------------||
-------------------|--------------||
-------------------|-------12\----||


     Pre-chorus 3 - m.84                                                    
     Q    E   E      H             Q     E   E   H         
E||----------------------------|--------------------------|
B||----------------------------|--------------------------|
G||----------------------------|--------------------------|
D||--------------10g12~--------|---L-----L---L\-----------|
A||-----------x----------------|--------------------------|
D||-----------x----------------|--------------------------|


  H        Q     E   E      H.             E   E      W                 
------------------------|--------------------------|-------------------|
------------------------|--------------------------|-------------------|
------------------------|--10~-------------L---L\--|-------------------|
----------------12--10--|--------------------------|-------------------|
------------------------|--------------------------|-------------------|
------------------------|--------------------------|-------------------|


   H.             E   E       E   E   H         Q      
--------------------------|---------------------------|
--------------------------|---------------------------|
--------------------------|---------------------------|
--12~-------------L---L\--|--12---L\------------------|
--------------------------|---------------------------|
--------------------------|--------------------12\----|


  S  S  S S S S S  S  S S S S E    S S  
---------------------------------------||
---------------------------------------||
---------------------------------------||
----------3----------------------------||
--3h-4h-5---5-0---------3--------------||
----------------3h-4h-5---5-4-3b~--0-0-||


   Out-solo                                                 
   S   S  S  S   S  S  S   S  S  S   S  S  S   S  E   
-----------------------------------------------------|
---------13--------13--------13--------13--------13--|
--12s-14----12s-14----12s-14----12s-14----12s-14-----|
-----------------------------------------------------|
-----------------------------------------------------|
-----------------------------------------------------|


   E.   S  E   E   S   E.    S  E    S  
----------------------------10------10-|
--13---13--L--13--10h-13b------13b-----|
--14---14--L--14-----------------------|
---------------------------------------|
---------------------------------------|
---------------------------------------|


   S   S  S  S   S   S  S   S  S  E    S  S  S  S  S   
------10------------10-----10---------10-13-10--------|
--13b----10-----13b----13b----10-13b-----------10-----|
------------12b-----------------------------------12b-|
------------------------------------------------------|
------------------------------------------------------|
------------------------------------------------------|


   S  S  S  S  S   S  S   S  E    E    E   E    
-----------------------------------------------|
--10-10-13-10-----10---------------------------|
--------------12b----12b-12-10~---L~-----------|
-------------------------------------------5/--|
-----------------------------------------------|
--------------------------------------12\------|


  E   E    E   E   E   E    E    E      E   E    E   E   E   E    E   E   
-------------------------------------|-----------------------------------|
-----20b---L\------------------------|-----15b---L\----------------------|
----------------------10~---L\-------|----------------------14b---L\-----|
--L----------------------------------|-----------------------------------|
-------------------------------------|-----------------------------------|
---------------3/--L------------12\--|--0------------3/--L------------3--|


  E   E    S  E.    E.    S   E   E      Q      E.    S   E   E    E   S   S  
-------------------------------------|---------------------------------------|
-------------------------------------|---------------------------------------|
-----14b---L-14b---14b---14b--L--14--|--12b----12b---12b--L--10~---L---------|
-------------------------------------|--------------------------------12p-10-|
-------------------------------------|---------------------------------------|
--L----------------------------------|---------------------------------------|


   E   S   S  S   S  S   S  S   S  E   Q      
---------------------------------------------|
---------------------------------------------|
--------------------------------------10~----|
--12--12p-10-12p-10--------12p-10------------|
--------------------12p-10--------12---------|
---------------------------------------------|


   E   S   S  S   S  S  S  S  E.   S  E.   
------------------------------------------|
------------------------------------------|
------------------------------------------|
--12--12p-10-12p-10----(0)----------------|
--------------------12-----9-10---11-12---|
------------------------------------------|


   E   S   S  S   S  S   S  S   S  E   Q         S  E.   S  E.   S  E.   S E.   
---------------------------------------------|---------------------------------|
---------------------------------------------|--13-----------------------------|
--------------------------------------10~----|-----10---12---------------------|
--12--12p-10-12p-10--------12p-10------------|-------------10---12-------------|
--------------------12p-10--------12---------|---------------------10---10-8---|
---------------------------------------------|---------------------------------|


   E   S   S  S   S  S   S  S   S  E   Q      
---------------------------------------------|
---------------------------------------------|
--------------------------------------10~----|
--12--12p-10-12p-10--------12p-10------------|
--------------------12p-10--------12---------|
---------------------------------------------|


   E   S   S  S   S  E   S   E.   S  E.    
------------------------------------------|
------------------------10s-13----L-------|
------------------------------------------|
--12--12p-10-12p-10-----------------------|
--------------------12--------------------|
------------------------------------12\---|


   E   S   S  S   S  S   S  S   S  E   Q      
---------------------------------------------|
---------------------------------------------|
--------------------------------------10~----|
--12--12p-10-12p-10--------12p-10------------|
--------------------12p-10--------12---------|
---------------------------------------------|


   E   S   S  S   S  S  S  S   S  S  S  S  E  S   
------------------------------------------------||
------------------------------------------------||
------------------------------------------------||
--12--12p-10-12p-10-------12p-10----------------||
--------------------12-12--------12-11-10S-8--8-||
------------------------------------------------||



Duration Legend
---------------
W - whole
H - half
Q - quarter
E - 8th
S - 16th

Tablature Legend
----------------
L - tied note

h - hammer on
p - pull off
b - bend
br - bendRelease
pb - preBend
pbr - preBendRelease
S - shift slide
s - legato slide
/ -  slide into from below or out of upwards
\ -  slide into from above or out of downwards
~ - vibrato





Comments


Popular Ian Moore tabs & chords
Muddy Jesus Bass Tabs
Satisfied Chords
April Tabs
Harlem Tabs
How Does It Feel Tabs
Jesus Wash Away My Troubles Tabs
Society Tabs
Lie Ukulele
Muddy Jesus Ukulele
Satisfied Ukulele


Song lyrics



↑ Back to top | Tablatures and chords are parodies/interpretations of the original songs. You may use it for private study, scholarship, research or language learning purposes only
© 2014 AZChords.com Contact us | Privacy policy | DMCA | Add/correct tabs | Request tabs | Top 50 tabs