>
 >
Muddy Jesus

Muddy Jesus Bass Tabs

Ian Moore - Muddy Jesus chords, tabs, tablatures, lyrics

Guitar lessons | Add/correct | Request | Top 50 tabs Artists:  A B C D E F G H I J K L M N O P Q R S T U V W X Y Z 0-9

Muddy Jesus Bass Tabs – Ian Moore

CD, Sheet music, Poster

Do you like Muddy Jesus? Share with your friends now
Bass TabsChordsTabsUkulele
-------------------------------------------------------------------------------
-------------------------------------------------------------------------------



Tuning: Drop D



     Intro - m.5                        
     H        E  E    E   E   
G||--------------------------|
D||--------------------------|
A||--------------------------|
D||--------------7/--12\--0--|


     S   S  S  S  S  S  S  S  S  S  S  S  S  S  S S  
||--------------------------------------------------|
||*-------------------------------------------------|
||*-------------------------------------------------|
||---7s-12-12-12-12-12-12-12-12-12-12-12-12-12-12-0-|


  S   S  S  S  S  S  S  S  S  S  S  S  S  S  S S  6x
--------------------------------------------------||
-------------------------------------------------*||
-------------------------------------------------*||
--7s-12-12-12-12-12-12-12-12-12-12-12-12-12-12-0--||


     Verse 1                                              
     S   S  S  S  S  S  S  S  S  S  S  S  S  S  S S  
||--------------------------------------------------|
||*-------------------------------------------------|
||*-------------------------------------------------|
||---7s-12-12-12-12-12-12-12-12-12-12-12-12-12-12-0-|


  S   S  S  S  S  S  S  S  S  S  S  S  S  S  S S  4x
--------------------------------------------------||
-------------------------------------------------*||
-------------------------------------------------*||
--7s-12-12-12-12-12-12-12-12-12-12-12-12-12-12-0--||


     Pre-chorus 1                                                            
     Q     S S E  E  E  S S S S    S S E  E  S S S S E  S S S S  3x
||------------------------------|--------------------------------||
||*-----------------------------|-------------------------------*||
||*-----------------------------|-------------------------------*||
||---3~----3-4-5--L--5--5-5-5-5-|--5-3-5--5--5-5-5-3-5--5-5-5-4--||


  Q     S S E  E  E  E  S S    E  E   Q    Q    E.  S  
----------------------------|-------------------------|
----------------------------|-------------------------|
----------------------------|-----------------------0-|
--3~----3-4-5--L--5--5--5-3-|--5--L\------------------|


  S  S S S S S S S S S S S S S E   
----------------------------------|
---------3------------------------|
--3h-4-5---5-4-------3-3----------|
---------------3-4-5-----5-4-3-0--|


     Verse 2                                              
     S   S  S  S  S  S  S  S  S  S  S  S  S  S  S S  
||--------------------------------------------------|
||*-------------------------------------------------|
||*-------------------------------------------------|
||---7s-12-12-12-12-12-12-12-12-12-12-12-12-12-12-0-|


  S   S  S  S  S  S  S  S  S  S  S  S  S  S  S S  6x
--------------------------------------------------||
-------------------------------------------------*||
-------------------------------------------------*||
--7s-12-12-12-12-12-12-12-12-12-12-12-12-12-12-0--||


  Pre-chorus 2                                                           
  Q     S S E  E  E  E  S S    S S E   E  S S S S E   S S S S  
----------------------------|---------------------------------|
----------------------------|---------------------------------|
----------------------------|---------------------------------|
--3~----3-4-5--L--5--5--5-5-|--5-3-5~--5--5-5-5-3-5~--5-5-5-4-|


  Q     S S E  Q    E  S S    S S E  E  S S  S  S  S  S  E    S S  
---------------------------|--------------------------------------|
---------------------------|--------------------------------------|
---------------------------|------------8-9-10-10-10-10-10~--10---|
--3~----3-4-5--L----5--5-5-|--5-3-5--7--------------------------0-|


  Q     S S E  E  E  E  S S    S S E  E  S S S S E  S S S S  
----------------------------|-------------------------------|
----------------------------|-------------------------------|
----------------------------|-------------------------------|
--3~----3-4-5--L--5--5--5-5-|--5-3-5--5--5-5-5-3-5--5-5-5-5-|


  Q     S S E  E  E  S S S S    E  E   Q    Q    E.  S  
-----------------------------|-------------------------|
-----------------------------|-------------------------|
-----------------------------|-----------------------0-|
--3~----3-4-5--5--5--5-5-5-3-|--5--L\------------------|


  S S S S S S S S S S S S S S E   
---------------------------------|
--------3------------------------|
--3-4-5---5-4-------3-3----------|
--------------3-4-5-----5-3-4-0--|


     Guitar Solo                                               
     S   S  S  S  S  S  S  S  S  S  S  S  S  S  S S  
||--------------------------------------------------|
||*-------------------------------------------------|
||*-------------------------------------------------|
||---7s-12-12-12-12-12-12-12-12-12-12-12-12-12-12-0-|


  S   S  S  S  S  S  S  S  S  S  S  S  S  S  S S  4x
--------------------------------------------------||
-------------------------------------------------*||
-------------------------------------------------*||
--7s-12-12-12-12-12-12-12-12-12-12-12-12-12-12-0--||


   S  S  S  S  S S  S  S  S  E  S  S  S  S S     S  E   S  S S S S S E.  E.  S  
---------------------------------------------|---------------------------------|
---------------------------------------------|-----------------------3---L-----|
---------------------------------------------|---------------------------------|
--10-12-12-12--L-0-10-12--L-12--0-12-12-12-0-|--10-12--12--L-0-3-4-5---------0-|


   S  E   S  S S  S  S  S  E  S     S  S  S S  
----------------------------------------------|
----------------------------------------------|
----------------------------------------------|
--10-12--12--L-0-10-12--L-12--0-10g12-12-12-0-|


   S  E   S  S S S S S E.  E  S S     S  E   S  S S  S  S  S  E  S  S  S  S S  
----------------------------------|-------------------------------------------|
-----------------------3---3--3---|-------------------------------------------|
--------------------------------0-|-------------------------------------------|
--10-12--12--L-0-3-4-5------------|--10-12--12--L-0-10-12--L-12--0-12-12-12-0-|


   S  E   S  S S S S S E.  E  S S     S  E   S  S S  S  S  S  E  S  S  S  S S  
----------------------------------|-------------------------------------------|
-----------------------3---3--3---|-------------------------------------------|
--------------------------------0-|-------------------------------------------|
--10-12--12--L-0-3-4-5------------|--10-12--12--L-0-10-12--L-12--0-12-12-12-0-|


   S  S  S  S  S S S S S E.  Q       W                   W                 
----------------------------------|-------------------|-------------------|
----------------------------------|-------------------|-------------------|
----------------------------------|-------------------|-------------------|
--10-12-12-12-12-0-3-4-5-3---L----|--L----------------|--L----------------|


                      Verse 3                                              
  E  E    E   E       S   S  S  S  S  S  S  S  S  S  S  S  S  S  S S  
-----------------||--------------------------------------------------|
-----------------||*-------------------------------------------------|
-----------------||*-------------------------------------------------|
--L--3s--12\--0--||---7s-12-12-12-12-12-12-12-12-12-12-12-12-12-12-0-|


                                                      Pre-chorus 3                        
  S   S  S  S  S  S  S  S  S  S  S  S  S  S  S S  4x  Q     S S E  Q    E  S S  
--------------------------------------------------||---------------------------|
-------------------------------------------------*||---------------------------|
-------------------------------------------------*||---------------------------|
--7s-12-12-12-12-12-12-12-12-12-12-12-12-12-12-0--||--3~----3-4-5--L----5--5-5-|


  S S E   E  S S S S E   S S S S    Q    S S E  E  E  E  S S  
---------------------------------|---------------------------|
---------------------------------|---------------------------|
---------------------------------|---------------------------|
--5-3-5~--5--5-5-5-3-5~--5-5-5-4-|--3----3-4-5--L--5--5--5-5-|


  S S E   E   S S  S  S  S  S  S  S  S S    Q    S S E  E  E  E  S S  
-----------------------------------------|---------------------------|
-----------------------------------------|---------------------------|
--------------8-9-10-10-10-10-10-10-10---|---------------------------|
--5-3-5~--5/---------------------------0-|--3----3-4-5--L--5--5--5-5-|


  S S E  E  S S S S E  S S S S    Q    S S E  E  E  E   S S  
-------------------------------|----------------------------|
-------------------------------|----------------------------|
-------------------------------|----------------------------|
--5-3-5--5--5-5-5-3-5--5-5-5-4-|--3----3-4-5--L--5--5~--5-3-|


  E  E   Q    Q    E.  S    S S S S S S S S S S S S S S E   
-------------------------|---------------------------------|
-------------------------|--------3------------------------|
-----------------------0-|--3-4-5---5-4-------3-3----------|
--5--L\------------------|--------------3-4-5-----5-4-3-0--|


      Out-Solo                                               
      S    S  S  S  S  S  S  S  S  S  S  S  S  S  S S  
||----------------------------------------------------|
||*---------------------------------------------------|
||*---------------------------------------------------|
||---(7)s-12-12-12-12-12-12-12-12-12-12-12-12-12-12-0-|


  S   S  S  S  S  S  S  S  S  S  S  S  S  S  S S  5x
--------------------------------------------------||
-------------------------------------------------*||
-------------------------------------------------*||
--7s-12-12-12-12-12-12-12-12-12-12-12-12-12-12-0--||


  S   S  S  S  S  S  S  S  S  S  S  S  S  S  S S  
-------------------------------------------------|
-------------------------------------------------|
-------------------------------------------------|
--7s-12-12-12-12-12-12-12-12-12-12-12-12-12-12-0-|


  S   S  S  S  S  S  S  S  S  S  S  S S S S S  
----------------------------------------------|
----------------------------------------------|
----------------------------------------------|
--7s-12-12-12-12-12-12-12-12-12-12-12-0-0-0-0-|


  S   S  S  S  S  S  S  S  S  S  S  S  S  S  S S  
-------------------------------------------------|
-------------------------------------------------|
-------------------------------------------------|
--7s-12-12-12-12-12-12-12-12-12-12-12-12-12-12-0-|


  S   S  S  S  S  S  S  S  S  S  S  S  S  S  S S  
-------------------------------------------------|
-------------------------------------------------|
-------------------------------------------------|
--7s-12-12-12-12-12-12-12-12-12-12-12-12-12-12-0-|


  S   S  S  S  S  S  S  S  S  S  S  S  S  S  S S  
-------------------------------------------------|
-------------------------------------------------|
-------------------------------------------------|
--7s-12-12-12-12-12-12-12-12-12-12-12-12-12-12-0-|


  S   S  S  S  S  S  S  S  S  S  S  S S S S S  
----------------------------------------------|
----------------------------------------------|
----------------------------------------------|
--7s-12-12-12-12-12-12-12-12-12-12-12-0-0-0-0-|


      Outro                                        
      S  E   S  S S  S  S  S  E  S  S  S  S S  
||--------------------------------------------|
||*-------------------------------------------|
||*-------------------------------------------|
||---10-12--12--L-0-10-12--L-12--0-12-12-12-0-|


   S  E   S  S S S S S E  S E  S S  3x
------------------------------------||
-----------------------3--3-3--3---*||
---------------------------------0-*||
--10-12--12--L-0-3-4-5--------------||


   S  E   S  S S  S  S  S  E  S  S  E   S  
------------------------------------------|
------------------------------------------|
------------------------------------------|
--10-12--12--L-0-10-12--L-12--0-10-12--12-|


                                          v                     
   S S  S  S  S  E  S  S  E   S  Q        Q     Q    H          
--------------------------------------|-----------------------||
--------------------------------------|-----------------------||
--------------------------------------|-----------------------||
---L-0-10-12--L-12--0-10-12--12--L----|---L\------------------||




Duration Legend
---------------
W - whole
H - half
Q - quarter
E - 8th
S - 16th
T - 32nd

Tablature Legend
----------------
L - tied note
h - hammer on
p - pull off
s - legato slide
\ -  slide into from above or out of downwards
~ - vibrato






Comments


Popular Ian Moore tabs & chords
Lie Chords
Magdalena Chords
Muddy Jesus Chords
Caroline Tabs
Harlem Tabs
Jesus Wash Away My Troubles Tabs
Magdalena Tabs
Society Tabs
Lie Ukulele
Muddy Jesus Ukulele


Song lyrics



↑ Back to top | Tablatures and chords are parodies/interpretations of the original songs. You may use it for private study, scholarship, research or language learning purposes only
© 2014 AZChords.com Contact us | Privacy policy | DMCA | Add/correct tabs | Request tabs | Top 50 tabs