» » »

I Am Ghost, Pretty People Never Lie, Vampires Never Really Die Tabs (ver.3)

Artists:  A B C D E F G H I J K L M N O P Q R S T U V W X Y Z # 

Pretty People Never Lie, Vampires Never Really Die Tabs (ver.3)

I Am Ghost Tabs
 Rating:
4/5 (4 votes)
Pretty People Never Lie, Vampires Never Really Die lessons Tabs too difficult? Try these video lessons and learn fast
1
                ----------------------------------------------------------------------------
                               I Am Ghost
         Pretty People Never Lie, Vampires Really Never Die
----------------------------------------------------------------------------

Hello everyone the moment is finally here! Someone that has actually made a tab for this
It might have taken a while I’m happy I made it! Reason I made this tab was because  1.
sorry about the talking you just want to learn the tab not my story. Album:
Requiem. So here it is! [RESENTLY UNPDATED, Intro (Guitar 2), Verse 2 (Guitar 1 & 2), 
Chorus (Guitar 1 & 2), Chorus (Guitar 1 & 2), Interlude (Guitar 2)]

Username: dkm817 (same on Xbox live)

Guitar 1 (D A D G B E)
Guitar 2 (D A D G B E)
No Violin Sorry

Intro (00:00)-(00:37)

Guitar 1 (00:00)-(00:08)
E-----------------------------------|
B-----------------------------------|
G-----------------------------------|
D-0~~~~~~~0~~~~~~~~0~~~~~~~~0~~~~~~-
A-0~~~~~~~0~~~~~~~~0~~~~~~~~0~~~~~~-
D-0~~~~~~~0~~~~~~~~0~~~~~~~~0~~~~~~-

Guitar 2 continues below (00:00)-(00:06)
E-------------------------------------------------------------------|
B-16--16--16--16---16-16-16--16--16--16---16-16-16--16--16--16--16--|
G-20--19--20--19---20-19-20--19--20--19---20-19-20--19--20--19--20--|
D-------------------------------------------------------------------|
A-------------------------------------------------------------------|
D-------------------------------------------------------------------|

Guitar 2 (00:06)-(00:08)
E----------------------|
B-16--16--16--16--16\--|
G-20--19--20--19--20\--|
D----------------------|
A----------------------|
D----------------------|

Guitar 1 (00:08)-(00:27)
E------------------------------------------------------------------|
B------------------------------------------------------------------|
G------------------------------------------------------------------|
D-0-0-0-0-0-0-0-0-8-8-8-8-8-8-8-8-5-5-5-5-5-5-5-5-3-3-3-3-2-2-2-2--| x2
A-0-0-0-0-0-0-0-0-8-8-8-8-8-8-8-8-5-5-5-5-5-5-5-5-3-3-3-3-2-2-2-2--|
D-0-0-0-0-0-0-0-0-8-8-8-8-8-8-8-8-5-5-5-5-5-5-5-5-3-3-3-3-2-2-2-2--|

Guitar 2 (00:08)-(00:15)
E------------------------------|
B------------------------------|
G------------------------------|
D-0h7h8-0h5h7-0h3h5-0---3p2---0|x3
A---------------------3-----3--|
D------------------------------|

Guitar 2 (00:15)-(00:20)
E-------------------------------|------------------------------|
B-------------------------------|------------------------------|
G-------------------------------|------------------------------|
D-----3---2p0-----5--3--2h3p2p0~|-0-0-7-0-0-7-0-0-7-0-0-7-0-0-7|
A-1-1---1------3----------------|------------------------------|
D-------------------------------|------------------------------|

Guitar 2 (00:20)-(00:24)
E------------------------------|----------------------------|
B------------------------------|----------------------------|
G------------------------------|-----------------------2-3-5|
D-----8---7-----10--8--7h8p7p5~|-2-2-5-2-3-2-2-5-2-3-5------|
A-8-8---8---7-8----------------|----------------------------|
D------------------------------|----------------------------|

Guitar 2 (00:24)-(00:27)
E--------------------------------|
B--------------------------------|
G-----------2-3-5-3-2-3-2--------|
D-0-0-2-3-5---------------5-3-2-0|
A--------------------------------|
D--------------------------------|

Guitar 1 and 2 (00:27)-(00:30)
E-----------------------------------------------------------|
B-----14-14-----14-14-----14--14-14-----14-14-----14--14-14-|
G-----17-17-----17-17-----17--17-17-----17-17-----17—-17-17-|
D-0-0-------0-0-------0-0-----------0-0-------0-0-----------|
A-0-0-------0-0-------0-0-----------0-0-------0-0-----------|
D-0-0-------0-0-------0-0-----------0-0-------0-0-----------|

Guitar 1 and 2 (00:30)-(00:33)
E-----------------------------------|
B-----14-14-----14-14-----14--14-14-|
G-----17-17-----17-17-----17--17-17-|
D-0-0-------0-0---------------------|
A-0-0-------0-0---------------------|
D-0-0-------0-0---------------------|

Guitar 1 (00:33)-(00:37)
E--------------------------------|
B-14~~~~~~~~~~~~~~~~~------------|
G-17~~~~~~~~~~~~~~~~~------------|
D--------------------0~~~~~~~~~~-|
A--------------------0~~~~~~~~~~-|
D--------------------0~~~~~~~~~~-|

Guitar 2 (00:33)-(00:37)
E------------------------------------------------------|
B------------------------------------------------------|
G------------------------------------------------------|
D-8p7p0-7p5p0-5p3p0-3p2p0-----------------------0~~~~~-|
A-------------------------7p5p0-5p3p0-3p2p0-----0~~~~~-|
D-------------------------------------------3p2-0~~~~~-|


Verse 1 (00:37)-(00:46)

Nothing going on so I will just put lyrics

Look How   You’ve Grown,   It’s Etched In Skin And Bone,  Dressed In Make-Up

And Bleached Out  In The Roses.

Verse 2 (00:46)-(00:55)

Guitar 1 (00:46)-(00:55)
E---------------------------------------------------------------------|
B---------------------------------------------------------------------|
G---------------------------------------------------------------------|
D-0-0---0-0---0-0--2-2---2-2---2-2--2-4---4-4---4-4--4-3---3-3--5-5-5-|
A-0-0---0-0---0-0--2-2---2-2---2-2--2-4---4-4---4-4--4-3---3-3--5-5-5-|
D-0-0---0-0---0-0--2-2---2-2---2-2--2-4---4-4---4-4--4-3---3-3--5-5-5-|
Pm............................................................

Guitar 2  continues below (00:46)-(00:53)
That’s Hollow  And Tasteless, Where Spirits  Make Love, And
E-----------------------------------------------------------|
B-----------------------------------------------------------|
G-7-7-7-7-7-7-7-10-9-9-9-9-9-9-9-12-10-10-10-10-10-10-10-14-|
D-----------------------------------------------------------|
A-----------------------------------------------------------|
D-----------------------------------------------------------|
Pm. . . . . . . .  . . . . . . . .  .  .  .  .  .  .  .  .

Guitar 2 (00:53)-(00:55)
 Pretty  Corpses Hold Their Brides
E----------------------------------|
B----------------------------------|
G-12-12-12-12-12-15-15-15-15-15-15-|
D----------------------------------|
A----------------------------------|
D----------------------------------|
Pm.  .  .  .  .  .  .  .  .  .  .


Pre chorus (00:55)-(01:04) the guitar 2 in this part was very hard to figure out so
don’t go crazy if it's wrong.

Guitar 1 & 2 (00:55)-(01:00)
Do         You Know I’d Never Hurt
E---------------------------------|
B---------------------------------|
G-3-3-3-3-3-3-3-3-5-5-5-5-6-6-6-6-|
D-3-3-3-3-3-3-3-3-5-5-5-5-6-6-6-6-|
A-1-1-1-1-1-1-1-1-3-3-3-3-4-4-4-4-|
D---------------------------------|


Guitar 1 (01:00)-(01:04)
E-----------|
B-----------|
G-----------|
D-0~~~~~~~~~
A-0~~~~~~~~~
D-0~~~~~~~~~

Guitar 2 (01:00)-(01:04)
E------------------------------------------------------------------|
B------------------------------------------------------------------|
G------------------------------------------------------------------|
D-7h8p7-0h7h8p7h8p7-0h7h8p7-0h7h8p7h8p7-0h7h8p7-0h7h8p7h8p7-0--0-0-|
A--------------------------------------------------------------0-0-|
D--------------------------------------------------------------0-0-|
Pm                                                             . .


Chorus (01:04)-(01:22)

Guitar 1 (01:04)-(01:13)
E-----------------------------------------------------------------|
B-----------------------------------------------------------------|
G-----------------------------------------------------------------|
D-0-0-0-0-0-0-0-0-8-8-8-8-8-8-8-8-7-7-7-7-7-7-7-7-5-5-5-5-5-5-5-5-|
A-0-0-0-0-0-0-0-0-8-8-8-8-8-8-8-8-7-7-7-7-7-7-7-7-5-5-5-5-5-5-5-5-|
D-0-0-0-0-0-0-0-0-8-8-8-8-8-8-8-8-7-7-7-7-7-7-7-7-5-5-5-5-5-5-5-5-|

Guitar 2 continues below (01:04)-(01:13)
So Taste “it” and We Will Never Be Alone I’ll Take the First Bite Yeah I Am
E-----------------------------------------------------------------|
B-----------------------------------------------------------------|
G-7-7-7-7-7-7-7-7-10-10-10-10-10-10-10-10-14-14-14-14-14-14-14-14-|
D-x-x-x-x-x-x-x-x-x--x--x--x--x--x--x--x--x--x--x--x--x--x--x--x--|
A-5-5-5-5-5-5-5-5-8--8--8--8--8--8--8--8--12-12-12-12-12-12-12-12-|
D-----------------------------------------------------------------|

Guitar 2
Ghost
E-------------------------|
B-12-12-12-12-12-12-12-12-|
G-x--x--x--x--x--x--x--x--|
D-10-10-10-10-10-10-10-10-|
A-------------------------|
D-------------------------|

Guitar 1 (01:13)-(01:22)
E-----------------------------------------------------------------|
B-----------------------------------------------------------------|
G-----------------------------------------------------------------|
D-0-0-0-0-0-0-0-0-8-8-8-8-8-8-8-8-7-7-7-7-7-7-7-7-5-5-5-5-3-3-2-2-|
A-0-0-0-0-0-0-0-0-8-8-8-8-8-8-8-8-7-7-7-7-7-7-7-7-5-5-5-5-3-3-2-2-|
D-0-0-0-0-0-0-0-0-8-8-8-8-8-8-8-8-7-7-7-7-7-7-7-7-5-5-5-5-3-3-2-2-|

Guitar 2  Continues below (01:13)-(01:22)
 Say            Goodnight         to You        My
E-------------------------------------------------|
B-14-14-14-14-14-14-14-14-15-15-15-15-15-15-15-15-|
G-x--x--x--x--x--x--x--x--x--x--x--x--x--x--x--x--|
D-12-12-12-12-12-12-12-12-13-13-13-13-13-13-13-13-|
A-------------------------------------------------|
D-------------------------------------------------|

Guitar 2
 Darling         My Darling
E-----------------------------------------------|
B-14-14-14-14-14-14-14-14-12-12-12-12-10-10-9-9-|
G-x--x--x--x--x--x--x--x--x--x--x--x--x--x--x-x-|
D-12-12-12-12-12-12-12-12-10-10-10-10-8--8--7-7-|
A-----------------------------------------------|
D-----------------------------------------------|

Interlude (01:22)-(01:31)

Guitar 1 and 2 (01:22)-(01:27)
 Few Words  Can’t Hurt Me,   They Inspire   In Your  Hands!
E-----------------------------------------------------------|
B-----------------------------------------------------------|
G-----------------------------------------------------------|
D-0-0---------0-0---------0-0---0-0---------0-0---------0-0-|
A-0-0---------0-0---------0-0---0-0---------0-0---------0-0-|
D-0-0---------0-0---------0-0---0-0---------0-0---------0-0-|

Guitar 1 (01:27)-(01:31)
Hands}}}}}}}}}}}}}}}}}}}}}}}}}}}}}}}}}}}}}}}}}}}}}}}}}}}}}}}}
E-------------------------------------------------------------|
B-------------------------------------------------------------|
G-------------------------------------------------------------|
D---0-0---------0-0---------0-0---0-0---------0-0---------0-0-|
A---0-0---------0-0---------0-0---0-0---------0-0---------0-0-|
D---0-0---------0-0---------0-0---0-0---------0-0---------0-0-|

Guitar 2 (01:27)-(01:31)
E-------------------------------------------------------------------|
B-------------------------------------------------------------------|
G-------------------------------------------------------------------|
D-h7h8p7-0h7h8p7h8p7-0h7h8p7-0h7h8p7h8p7-0h7h8p7-0h7h8p7h8p7-0--0-0-|
A---------------------------------------------------------------0-0-|
D---------------------------------------------------------------0-0-|
Pm                                                              . .

Verse 3 (01:31)-(01:58)

Guitar 1  continues below (01:31)-(01:58)
  The   Sun   Outside, Look At These Glass-Shaped Walls
E------------------------------------------------------  |
B------------------------------------------------------  |
G------------------------------------------------------  |
D-0-0-0-0-0-0---0-0--0-0-0-0-8-8-8-8-8-8---8-8--8-8-8-8  |
A-0-0-0-0-0-0---0-0--0-0-0-0-8-8-8-8-8-8---8-8--8-8-8-8  |
D-0-0-0-0-0-0---0-0--0-0-0-0-8-8-8-8-8-8---8-8--8-8-8-8  |
Pm ....................................................  |
                                                         |
Guitar 1                                                 |------- x3
We’ll Burn     The Flesh      Off All These Paper Dolls
E------------------------------------------------------  |
B------------------------------------------------------  |
G------------------------------------------------------  |
D-7-7-7-7-7-7---7-7--7-7-7-7-5-5-5-5-5-5---3-3--2-2-2-2  |
A-7-7-7-7-7-7---7-7--7-7-7-7-5-5-5-5-5-5---3-3--2-2-2-2  |
D-7-7-7-7-7-7---7-7--7-7-7-7-5-5-5-5-5-5---3-3--2-2-2-2  |
Pm.....................................................  |

Guitar 2 Play with light fingers (01:40)-(01:47)
 We         Won’t Fall,          We’ll Be Together    Just,
E-----------------------------------------------------------|
B-----------------------------------------------------------|
G-7-7-7-7-7-7-7-10-9-9-9-9-9-9-9-12-10-10-10-10-10-10-10-14-|
D-----------------------------------------------------------|
A-----------------------------------------------------------|
D-----------------------------------------------------------|
Pm. . . . . . . .  . . . . . . . .  .  .  .  .  .  .  .  .

Guitar 2 (01:47)-(01:49)
 The Two      Of    Us
E----------------------------------|
B----------------------------------|
G-12-12-12-12-12-15-15-15-15-15-15-|
D----------------------------------|
A----------------------------------|
D----------------------------------|
Pm.  .  .  .  .  .  .  .  .  .  .

Guitar 2 (01:49)-(01:53)
 That’s  Hollow              And                Breathless,  Where
E--------------------------------|-----------------------------------|
B--------------------------------|-----------------------------------|
G-8p0-0h6h7-0h5h6p5-0h7h8-0h6h7p6|-10p0-0h8h9-0h7h8p7-0h9h10-0h8h9p8-|
D--------------------------------|-----------------------------------|
A--------------------------------|-----------------------------------|
D--------------------------------|-----------------------------------|

Guitar 2 (01:53)-(01:58)
 Spirits    Make    Love     And I’m Lost And Lonely Through Your Eyes
E----------------------------------------------------------------------|
B----------------------------------------------17-17-17-17-17-17-17-17-|
G-13p0-0h11h12-0h10h11p10-0h12h13-0h11h12p11---14-14-14-14-14-14-14-14-|
D----------------------------------------------------------------------|
A----------------------------------------------------------------------|
D----------------------------------------------------------------------|

Pre chorus (01:58)-(02:06)

Guitar 1 & 2 (01:58)-(02:02)
Do         You Know I’d Never Hurt
E---------------------------------|
B---------------------------------|
G-3-3-3-3-3-3-3-3-5-5-5-5-6-6-6-6-|
D-3-3-3-3-3-3-3-3-5-5-5-5-6-6-6-6-|
A-1-1-1-1-1-1-1-1-3-3-3-3-4-4-4-4-|
D---------------------------------|

Guitar 1 (02:02)-(02:06)
E-----------|
B-----------|
G-----------|
D-0~~~~~~~~~
A-0~~~~~~~~~
D-0~~~~~~~~~

Guitar 2 (02:02)-(02:06)
E----------------------------------------------------------------|
B----------------------------------------------------------------|
G----------------------------------------------------------------|
D-7h8p7-0h7h8p7h8p7-0h7h8p7-0h7h8p7h8p7-0h7h8p7-0h7h8p7h8p7-0--0-|
A--------------------------------------------------------------0-|
D--------------------------------------------------------------0-|
Pm                                                             .

Chorus (02:06)-(02:24)

Guitar 1 (02:06)-(02:16)
E--------------------------------------------------------------------|
B--------------------------------------------------------------------|
G--------------------------------------------------------------------|
D-0-0-0-0-0-0-0-0-8-8-8-8-8-8-8-8-7-7-7-7-7-7-7-7-5-5-5-5-5-3x-3x----|3x
A-0-0-0-0-0-0-0-0-8-8-8-8-8-8-8-8-7-7-7-7-7-7-7-7-5-5-5-5-5-3x-3x----|3x
D-0-0-0-0-0-0-0-0-8-8-8-8-8-8-8-8-7-7-7-7-7-7-7-7-5-5-5-5-5-3x-3x----|3x

Guitar 2 continues below (02:06)-(02:16)
So Taste “it” and We Will Never Be Alone I’ll Take the First Bite Yeah I Am
E-----------------------------------------------------------------|
B-----------------------------------------------------------------|
G-7-7-7-7-7-7-7-7-10-10-10-10-10-10-10-10-14-14-14-14-14-14-14-14-|
D-x-x-x-x-x-x-x-x-x--x--x--x--x--x--x--x--x--x--x--x--x--x--x--x--|
A-5-5-5-5-5-5-5-5-8--8--8--8--8--8--8--8--12-12-12-12-12-12-12-12-|
D-----------------------------------------------------------------|

Guitar 2
Ghost
E------------------------|
B-12-12-12-12-12-9x-9x-9x|
G-x--x--x--x--x--x--x--x-|
D-10-10-10-10-10-7x-7x-7x|
A------------------------|
D------------------------|

Guitar 1 (02:16)-(02:24)
E-----------------------------------------------------------------|
B-----------------------------------------------------------------|
G-----------------------------------------------------------------|
D-0-0-0-0-0-0-0-0-8-8-8-8-8-8-8-8-7-7-7-7-7-7-7-7-5-5-5-5-3-3-2-2-|
A-0-0-0-0-0-0-0-0-8-8-8-8-8-8-8-8-7-7-7-7-7-7-7-7-5-5-5-5-3-3-2-2-|
D-0-0-0-0-0-0-0-0-8-8-8-8-8-8-8-8-7-7-7-7-7-7-7-7-5-5-5-5-3-3-2-2-|

Guitar 2  Continues below (02:16)-(02:24)
 Say            Goodnight         to You        My
E-------------------------------------------------|
B-14-14-14-14-14-14-14-14-15-15-15-15-15-15-15-15-|
G-x--x--x--x--x--x--x--x--x--x--x--x--x--x--x--x--|
D-12-12-12-12-12-12-12-12-13-13-13-13-13-13-13-13-|
A-------------------------------------------------|
D-------------------------------------------------|

Guitar 2
 Darling         My Darling
E-----------------------------------------------|
B-14-14-14-14-14-14-14-14-12-12-12-12-10-10-9-9-|
G-x--x--x--x--x--x--x--x--x--x--x--x--x--x--x-x-|
D-12-12-12-12-12-12-12-12-10-10-10-10-8--8--7-7-|
A-----------------------------------------------|
D-----------------------------------------------|

Bridge (02:24)-(02:43)

Guitar 1 (02:24)-(02:43)
E--------------------------------|
B--------------------------------|
G--------------------------------|
D--------------------------------| x4
A--------------------------------|
D-0-0-0-0-0-0-0-0--0-0--0-0-0-0--|

Guitar 2 Read the legend at end of tab to find what (*) means(02:24)-(02:33)
E--------------------------------------------------------------------------|
B--------------------------------------------------------------------------|
G--------------------------------------------------------------------------|
D--------------------------------------------------------------------------|
A--------------------------------------------------------------------------|
D-0(*)-0(*)-0(*)-0(*)-0(*)-0(*)-0(*)-0(*)---0(*)-0(*)--0(*)-0(*)-0(*)-0----|(*)

Guitar 2 (02:33)-(02:43)
So Take     This Rose,    So Take     This Rose
E-------------------------------------------------|
B-------------------------------------------------|
G---7-8-7-6*-----7-8-7-6*---7-8-7-6*-----7-8-7-6--|
D-6----------6h8----------6----------6h8----------|
A-------------------------------------------------|
D-------------------------------------------------|

Bridge 2 (02:43)-(03:22) the guitar parts on this are just repeats so I will do lyrics separate

Take   This Rose   And Break  This Bottle Of Aged Pills

We     Will Sleep       Tonight        And All  Through  December
               (Will Sleep)   (Tonight)

Soon   She’ll Grow       Angel,      Put Me Back   Together  Again
                (I’ll Grow)  (Angel),      (Back   Together  Again)

Guitar 1 continues below (02:43)-(03:19)
E----------------------------------------------------------------|
B----------------------------------------------------------------|
G-7-7-7-7-7-7-7-7-10-10-10-10-10-10-10-10-12-12-12-12-12-12-12-12|
D-7-7-7-7-7-7-7-7-10-10-10-10-10-10-10-10-12-12-12-12-12-12-12-12|
A-5-5-5-5-5-5-5-5-8--8--8--8--8--8--8--8--10-10-10-10-10-10-10-10|
D----------------------------------------------------------------|
Pm...............................................................|x4
                                                                 |
Guitar 1                                                         |
E--------------------                                            |
B--------------------                                            |
G-14-14-14-14-6-6-6-6                                            |
D-14-14-14-14-6-6-6-6                                            |
A-12-12-12-12-4-4-4-4                                            |
D--------------------                                            |
Pm...................                                            |

Guitar 2 continues below (02:43)-(03:19)
E------------------------------------------------------------|
B---12--------12--------12--------12--------12--------12-----|
G---10-9-10---10-9-10---10-9-10---10-9-10---10-9-10---10-9-10|
D-7---------7---------7---------7---------7---------7--------|
A------------------------------------------------------------|
D------------------------------------------------------------|
                                                             |
Guitar 2                                                     |---x4
E--------------------                                        |
B---12--------12-----                                        |
G---10-9-10---10-9-10                                        |
D-7---------7--------                                        |
A--------------------                                        |
D--------------------                                        |

Guitar 1 and 2 (03:19)-(03:22)
E------------|
B------------|
G------------|
D-0~~~~~~~~~-
A-0~~~~~~~~~-
D-0~~~~~~~~~-
x<<<<<<<<<<X-  gradually decrease volume
|  -  this was just to let you read it easier when it was a fast part (separator)

All right, that’s all I got on it, and I got to tell you it is hard to tab all the
tabs legends, it gets on my nerves but in the end I’m proud of my work. ROCK OUT!!!!!!!!!!!!!
            
Submit corrections

comments powered by Disqus
↑ Back to top | I Am Ghost Tabs for Pretty People Never Lie, Vampires Never Really Die. Lyrics for acoustic guitar and electric guitar. 1 Tablatures and chords are parodies/interpretations of the original songs. You may use it for private study, scholarship, research or language learning purposes only