» » »

Howie Day, Collide Tabs (ver.1)

Artists:  A B C D E F G H I J K L M N O P Q R S T U V W X Y Z # 

Collide Tabs (ver.1)

Howie Day Tabs
Rating:
5/5 (14 votes)
Collide lessons Tabs too difficult? Try these video lessons and learn fast
                --------------------------------------------------------------------------------------------
--------------------------------------------------------------------------------------------

--------------------------------------------------------------------------------------------

Tuning: 1/2 Step Down


Chords Used in this Song:

 ---------------------
|                     |
|  C         (x32013) |
|  Gadd4/B   (x20013) |
|  Am        (x02210) |
|  Fmaj7     (xx3210) |
|  G         (320003) |
|                     |
 ---------------------


Legend:

 ---------------------
|                     |
|  V     (Down Strum) |
|  ^      (Up Strum)  |
|  h      (Hammer On) |
|                     |
 ---------------------

Note:

Everyone has the studio version of this song tabbed out incorrectly.
Howie Day does NOT use a capo in the studio album version.
He tunes his guitar 1/2 step down, and if you watch the music video
you can see that I am correct.  Here is how he plays it.  It sounds PERFECT.

Here are screen shots that I took from the official music video.  


--------------------------------------------------------------------------------------------

Intro/Verse/Chorus:


Chords:   C   Gadd4/B   Am   Fmaj7

Tablature:


     v  v ^ ^   v   v v ^       v  v ^ ^   v   v v ^

e|------3-3-3-------3-3-3---|------3-3-3-------3-3-3-------|
B|------1-1-1-------1-1-1---|------1-1-1-------1-1-1-------|
G|------0-0-0-------0-0-0---|------0-0-0-------0-0-0-------|
D|------2-2-2-------2-2-2---|------0-0-0-------0-0-0-------|
A|---3--3-3-3---3---3-3-3---|---2--2-2-2---2---2-2-2-------|
E|--------------------------|------------------------------|

    v  v ^ ^   v   v v ^       v  v ^ ^  v    v ^  v ^

 ------0-0-0-------0-0-0---|------0-0-0--0----0-0--0-0-----|
 ------1-1-1-------1-1-1---|------1-1-1--1----1-1--1-1-----|
 ------2-2-2-------2-2-2---|------2-2-2--0h2--2-2--0-0-----|
 ------2-2-2-------2-2-2---|---3--3-3-3--3----3-3--0-0-----|
 ---0--0-0-0---0---0-0-0---|-------------------------------|
 --------------------------|-------------------------------|


--------------------------------------------------------------------------------------------

Bridge:

Chords:   Am   Fmaj7   G

Tablature:

                                   Let Ring~~~~~~~~~~~~~~~>

e|------------------------------|---------------------------|
B|-------1--------1-----0-------|---------------------------|
G|-----2--------2-------0-------|---------------------------|
D|---2--------3---------0-------|---------------------------|  x3
A|------------------------------|---------------------------|
E|------------------------------|---------------------------|


--------------------------------------------------------------------------------------------
            
Submit corrections

comments powered by Disqus
↑ Back to top | Howie Day Tabs for Collide. Lyrics for acoustic guitar and electric guitar. Tablatures and chords are parodies/interpretations of the original songs. You may use it for private study, scholarship, research or language learning purposes only