» » »

Hot Water Music, Trademark Tabs (ver.1)

Artists:  A B C D E F G H I J K L M N O P Q R S T U V W X Y Z # 

Trademark Tabs (ver.1)

Hot Water Music Tabs
 Rating:
3.3/5 (6 votes)
Trademark lessons Tabs too difficult? Try these video lessons and learn fast
                -----------------------------------------------------------------------------
-----------------------------------------------------------------------------


Tuning: Standard [EADGBE]


@ 0:09
e|--------------------------------------|
B|--------------------------------------|
G|----9-12-----9-7-----9-12-----9-7-----|
D|--7--------7-------7--------7---------|
A|--------------------------------------|
E|--------------------------------------|


@ 0:17
e|---------------------------------|
B|---------------------------------|
G|----9-12--14-----9-12----9-7-----|
D|--7------------7--------7--------|
A|---------------------------------|
E|---------------------------------|


@ 00:26
e|-------------------------------------|
B|-------------------------------------|
G|-------------------------------------|
D|--787878787878787879797978787878-----|
A|-------------------------------------|
E|-------------------------------------|
Hmm.. Not sure here. Some backround guitar i cant make up.


@ 1:01
e|----------------------------------|
B|---10101010109999999----(121212?)-|
G|----------------------------------|
D|----------------------------------|
A|----------------------------------|
E|----------------------------------|


@ 02:19
e|-----------------|
B|-----------------|
G|--7--------------|
D|--7--7--2--4-----|
A|--5--7--2--4-----|
E|-----5--0--2-----|


@ 02:36 [Palm muted]
e|-------------------|
B|-------------------|
G|--7----------------|
D|--7--7-----2--4----|
A|--5--7-----2--4----|
E|-----5-----0--2----|
          |
          |
          V
@ 02:36
e|--------|-----------|
B|--------|-----------|
G|--------|-----------|
D|--------|-----------|
A|--454---|--454------|
E|--------|-----5-----|
   

@ 02:54
e|----------------------------|
B|----------------------------|
G|----------------------------|
D|--777-6------------6767-----| x2
A|--------7-------------------|
E|-----------7676-9-----------|


@ 3:04
e|----------------------------------------|
B|----------------------------10-9-10-----|
G|----------777-6----777-6----------------|
D|--777-6---------7--------7--------------|
A|--------7-------------------------------|
E|----------------------------------------|
Last part could be wrong, not sure.


************************************************
            
Submit corrections

comments powered by Disqus
↑ Back to top | Hot Water Music Tabs for Trademark. Lyrics for acoustic guitar and electric guitar. Tablatures and chords are parodies/interpretations of the original songs. You may use it for private study, scholarship, research or language learning purposes only