» » »

Trademark Bass tabs (ver.1)

Artists:  A B C D E F G H I J K L M N O P Q R S T U V W X Y Z # 

Trademark Bass tabs (ver.1)

Hot Water Music
Rating:
4/5 (1 vote)

Hard to play? Try these video lessons and learn fast.
                ----------------------------------------------------------------------------
----------------------------------------------------------------------------

Well the other guy didn't tab out any of Jason's little fills, so I'm gonna take
the liberty of making a full tab with the fills.


Tuning: Standard
{Intro} 1x               11x
G|----7--6--9-7-6h7h6-|----7--6--9-7-6h7h6-----------------------------------|
D|--77-77-77-7-7------|-777-77-77-7-7----------------------------------------|
A|--------------------|------------------------------------------------------|
E|--------------------|------------------------------------------------------|
{Verse}
G|---------------------------------------------------------------------------|
D|--777777777777-9-7-6h76h7-7777-9-7-9-11-12-11-9-7-9-7-6h76h7---------------|
A|---------------------------------------------------------------------------|
E|---------------------------------------------------------------------------|

G|---------------------------------------------------------------------------|
D|--777777777777-9-7-6h76h7-77777777-9-7-6h76h7-7-7-6h76h7-------------------|
A|---------------------------------------------0-0---------------------------|
E|---------------------------------------------------------------------------|
                      When Chris screams
{2nd Verse}  3x     at 0:54 I add this.         1x at end of 2nd Verse
G|-------------------|----7--------------|-----------------------------------|
D|--7777777777777777-|----7--------------|----777777777777----2h4-2----------|
A|-------------------|-------------------|-----------------2h4-----4-2p0-----|
E|-------------------|-------------------|-----------------------------------|
{Chorus}
G|---------------------------------------------------------------------------|
D|---------------------------------------------------------------------------|
A|--999999999999999999999999-975754045-5555555555555555----------------------|
E|---------------------------------------------------------------------------|

G|---------------------------------------------------------------------------|
D|---------------------------------------------------------------------------|
A|-5/0-999999999999999999999999-975754045-555555555555-55-55-55-5-5-5--------|
E|---------------------------------------------------------------------------|

{Intro}     1x               4x
G|----7--6--9-7-6h7h6-|----7--6--9-7-6h7h6-----------------------------------|
D|--77-77-77-7-7------|-777-77-77-7-7----------------------------------------|
A|--------------------|------------------------------------------------------|
E|--------------------|------------------------------------------------------|
                      When Chris screams
{2nd Verse}  3x       at 1:38 I add this.         1x at end of 2nd Verse
G|-------------------|----7--------------|-----------------------------------|
D|--7777777777777777-|----7--------------|----777777777777----2h4-2----------|
A|-------------------|-------------------|-----------------2h4-----4-2p0-----|
E|-------------------|-------------------|-----------------------------------|

{Chorus}
G|---------------------------------------------------------------------------|
D|---------------------------------------------------------------------------|
A|--999999999999999999999999-975754045-5555555555555555----------------------|
E|---------------------------------------------------------------------------|

G|---------------------------------------------------------------------------|
D|---------------------------------------------------------------------------|
A|--999999999999999999999999-975754045-555555555555-55-55-55-5-5-5-----------|
E|---------------------------------------------------------------------------|

G|---------------------------------------------------------------------------|
D------------------------------------------------4--5--7--5--4--5--4-4h5h4---|
A|-5/0--99999999999999999999999999999999-55555555-55-55-55-55-55-55-------5--|
E|---------------------------------------------------------------------------|

G|---------------------------------------------------------------------------|
D|---------------------------------------------------------------------------|
A|--99999999999999999999999999999999-5555555555555555-5--5--5--5--5-5--------|
E|---------------------------------------------------------------------------|

{Outro}           2x                           1st ending   2nd ending
G|-------------------------------------------|------------|--------------------|
D|----------------------------------420-2p00-|-4b-4444444-|--4(let ring)-------|
A|--5-4-0-000------------5-4-0-000-----------|------------|--------------------|
E|-------------0-0-2-222---------------------|------------|--------------------|

Then:
G|-----------------------------------------------------------------------------|
D|-------------------------------------------------420-2p00-4444-2-2-0---------|
A|--555-444-00000000---------------555-444-00000000-----------------2----------|
E|------------------000000-22222222--------------------------------------------|

G|---------------------------------------------------------------------------|
D|-------------------------------------------------420-2p00-44444444---------|
A|--555-444-00000000---------------555-444-00000000--------------------------|
E|------------------000000-22222222------------------------------------------|
                       Play 2x
G|---------------------------------------------------------------------------|
D|---------------------------------420-2p00-4(let ring)------------4////0----|
A|--5-4-0-000------------5-4-0-000-------------------------------------------|
E|-------------0-0-2-222-----------------------------------------------------|

        That's it! Dunno if the fills are
        completely right, but they're close
        enough that you can figure em out if you want.

| /  slide up
| \  slide down
| h  hammer-on
| p  pull-off
| ~  vibrato
| +  harmonic
| x  Mute note
============================================================================
            
Hard to play? Try these video lessons and learn fast. | Correct




comments powered by Disqus
↑ Back to top | Tablatures and chords are parodies/interpretations of the original songs. You may use it for private study, scholarship, research or language learning purposes only