» » »

Hot Water Music, Just Don't Say You Lost It Bass tabs (ver.1)

Artists:  A B C D E F G H I J K L M N O P Q R S T U V W X Y Z # 

Just Don't Say You Lost It Bass tabs (ver.1)

Hot Water Music Tabs
 Rating:
4/5 (4 votes)
Just Don't Say You Lost It lessons Tabs too difficult? Try these video lessons and learn fast
                * : hold that note
~ : bend that note
h,p : hammer on, pull off
/,\ : slide up, slide down
 
0:12  intro
G:-------------------------------------|
D:----4--4-----4--4-----4--4--0044-----|
A:-000-00-0-222-22-2--------------4422-|
E:-------------------222-22-2----------|
 
0:34
G|-----------------------------------|
D|--4-2h4----4-2h4----4-2h4--00400---|
A|00-0---0-22-2---2---------------42-|
E|------------------22-2---2---------|
 
0:57
G:-----------------------------------------------------------------|
D:-----------------------------------------------------------------|
A:-4-4-4-4-7-5-4h5p4----------------------------------5555757p54h5-|
E:------------------5555555555555555-2222222222222222--------------|
 
1:20
G|----------------------------------|
D|--4-2h4----4-2h4----4-2h4--0040---|
A|00-0---0-22-2---2--------------42-|
E|------------------22-2---2--------|
 
1:42
G|-----------------------------------|
D|--4-2h4----4-2h4----4-2h4--00400---|
A|00-0---0-22-2---2---------------42-|
E|------------------22-2---2---------|
 
2:16 - BREAK, NO BASS
 
2:22
G:-----------------|
D:-----------------|
A:-22-2222----4444-|
E:---------22------|
            
Submit corrections

comments powered by Disqus
↑ Back to top | Hot Water Music Bass for Just Don't Say You Lost It. Lyrics for acoustic guitar and electric guitar. Tablatures and chords are parodies/interpretations of the original songs. You may use it for private study, scholarship, research or language learning purposes only