» » »

Horrorpops, Undefeated Bass tabs (ver.1)

Artists:  A B C D E F G H I J K L M N O P Q R S T U V W X Y Z # 

Undefeated Bass tabs (ver.1)

Horrorpops Tabs
 Rating:
4/5 (4 votes)
Undefeated lessons Tabs too difficult? Try these video lessons and learn fast
1
                
Intro
E----------------------------------------------------------------|
H---12--11--9----------------------------------------------------|
G-----------------12--12--12--12--10--10--10--10--12--12--12--12-|
D----------------------------------------------------------------|

E----------------------------------------------------------------|
H---12--11--9----------------------------------------------------|
G-----------------12--12--12--12--10--10--10--10--12--12--12--12-|
D----------------------------------------------------------------|

When I'm down, you get me up I always have you to count on
E----------------------------------------------------------------|
H-12--12--12--12--11--11--11--11--9--9--9--9--11--11-11--11------|
G----------------------------------------------------------------|
D----------------------------------------------------------------|

When I'm alone, you call with a voice that makes me smile
----------------------------------------------------------------|
-12--12--12--12--11--11--11--11--9--9--9--9--11--11-11--11------|
----------------------------------------------------------------|
----------------------------------------------------------------|

Taking away, the pain you remove my infection
----------------------------------------------------------------|
-12--12--12--12--11--11--11--11--9--9--9--9--11--11-11--11------|
----------------------------------------------------------------|
----------------------------------------------------------------|

My band, my friends my life, my pride what keeps me undefeated
----------------------------------------------------------------|
-12--12--12--12--11--11--11--11--9--9--9--9--11--11-11--11------|
----------------------------------------------------------------|
----------------------------------------------------------------|


----------------------------------------------------------------|
----------------------------------------------------------------|
--9--9--9--9--10--10--10--10--12--12--12--12----12--12----------|
----------------------------------------------------------------|

Words that go unspoken  You know what's in my heart
----------------------------------------------------------------|
----------------------------------------------------------------|
--9--9--9--9--10--10--10--10--12--12--12--12----12--12----------|
----------------------------------------------------------------|


Never gonna go back where
----------------------------------------------------------------|
--12--12--12--12--15--15--15--15--10--10--10----10--10--10--10--|
----------------------------------------------------------------|
----------------------------------------------------------------|

I had no place to roam
----------------------------------------------------------------|
--12--12--12--12--15--15--15--15--10--10--10----10--10--10--10--|
----------------------------------------------------------------|
----------------------------------------------------------------|

If i start going down again
----------------------------------------------------------------|
--12--12--12--12--15--15--15--15--10--10--10----10--10--10--10--|
----------------------------------------------------------------|
----------------------------------------------------------------|

You got my back and you'll never let me go
----------------------------------------------------------------|
--12--12--12--12--15--15--15--15--10--10--10----10--10--10--10--|
----------------------------------------------------------------|
----------------------------------------------------------------|

Zwischenspiel
----------------------------------------------------------------|
---12--11--9----------------------------------------------------|
-----------------12--12--12--12--10--10--10--10--12--12--12--12-|
----------------------------------------------------------------|

----------------------------------------------------------------|
---12--11--9----------------------------------------------------|
-----------------12--12--12--12--10--10--10--10--12--12--12--12-|
----------------------------------------------------------------|


If I go blind from crying Cause of all the pain That I've received
-----------------------------------------------------------------|
-12--12--12--12--11--11--11--11--9--9--9--9--11--11-11--11-------|
-----------------------------------------------------------------|
-----------------------------------------------------------------|

You're there to remind me That I don't cry alone
-----------------------------------------------------------------|
-12--12--12--12--11--11--11--11--9--9--9--9--11--11-11--11-------|
-----------------------------------------------------------------|
-----------------------------------------------------------------|

If I start to fumble You're there to prevent my stumble
-----------------------------------------------------------------|
-12--12--12--12--11--11--11--11--9--9--9--9--11--11-11--11-------|
-----------------------------------------------------------------|
-----------------------------------------------------------------|

­My pain, my grief my loss, I'm not so tough You're there to keep the line
-----------------------------------------------------------------|
-12--11--9-------------------------------------------------------|
---------------12--10--10--12------------------------------------|
-----------------------------------------------------------------|


Words that go unspoken  You know what's in my heart
-----------------------------------------------------------------|
-----------------------------------------------------------------|
--9--9--9--9--10--10--10--10--12--12--12--12----12--12-----------|
-----------------------------------------------------------------|

-----------------------------------------------------------------|
-----------------------------------------------------------------|
--9--9--9--9--10--10--10--10--12--12--12--12----12--12-----------|
-----------------------------------------------------------------|

-----------------------------------------------------------------|
--12--12--12--12--15--15--15--15--10--10--10----10--10--10--10---|
-----------------------------------------------------------------|
-----------------------------------------------------------------|

Never gonna go back where
-----------------------------------------------------------------|
--12--12--12--12--15--15--15--15--10--10--10----10--10--10--10---|
-----------------------------------------------------------------|
-----------------------------------------------------------------|

I had no place to roam
-----------------------------------------------------------------|
--12--12--12--12--15--15--15--15--10--10--10----10--10--10--10---|
-----------------------------------------------------------------|
-----------------------------------------------------------------|

If i start going down again
-----------------------------------------------------------------|
--12--12--12--12--15--15--15--15--10--10--10----10--10--10--10---|
-----------------------------------------------------------------|
-----------------------------------------------------------------|

You got my back and you'll never let me go
-----------------------------------------------------------------|
--12--12--12--12--15--15--15--15--10--10--10----10--10--10--10---|
-----------------------------------------------------------------|
-----------------------------------------------------------------|


My brand, my friends My life, my pride Never let me go
-----------------------------------------------------------------|
-12---------------11----------------9-----------------11---------|
-----------------------------------------------------------------|
-----------------------------------------------------------------|

My brand, my friends My life, my pride Never let me go
-----------------------------------------------------------------|
-12---------------11----------------9-----------------11---------|
-----------------------------------------------------------------|
-----------------------------------------------------------------|

My brand, my friends My life, my pride Never let me go
-----------------------------------------------------------------|
-12---------------11----------------9-----------------11---------|
-----------------------------------------------------------------|
-----------------------------------------------------------------|

My brand, my friends My life, my pride GO!
-----------------------------------------------------------------|
-12---------------11----------------9-----------------11---------|
-----------------------------------------------------------------|
-----------------------------------------------------------------|


-----------------------------------------------------------------|
--12--12--12--12--15--15--15--15--10--10--10----10--10--10--10---|
-----------------------------------------------------------------|
-----------------------------------------------------------------|

Never gonna go back where
-----------------------------------------------------------------|
--12--12--12--12--15--15--15--15--10--10--10----10--10--10--10---|
-----------------------------------------------------------------|
-----------------------------------------------------------------|

I had no place to roam
-----------------------------------------------------------------|
--12--12--12--12--15--15--15--15--10--10--10----10--10--10--10---|
-----------------------------------------------------------------|
-----------------------------------------------------------------|

If i start going down again
-----------------------------------------------------------------|
--12--12--12--12--15--15--15--15--10--10--10----10--10--10--10---|
-----------------------------------------------------------------|
-----------------------------------------------------------------|

You got my back and you'll never let me go
-----------------------------------------------------------------|
--12--12--12--12--15--15--15--15--10--10--10----10--10--10--10---|
-----------------------------------------------------------------|
-----------------------------------------------------------------|


Something may miss. I'm not sure. But it is the first undefeated bass-tab. I hope you 
it.
            
Submit corrections

comments powered by Disqus
↑ Back to top | Horrorpops Bass for Undefeated. Lyrics for acoustic guitar and electric guitar. 1 Tablatures and chords are parodies/interpretations of the original songs. You may use it for private study, scholarship, research or language learning purposes only