» » »

Horrorpops, Undefeated Tabs (ver.1)

Artists:  A B C D E F G H I J K L M N O P Q R S T U V W X Y Z # 

Undefeated Tabs (ver.1)

Horrorpops Tabs
 Rating:
4.2/5 (5 votes)
Undefeated lessons Tabs too difficult? Try these video lessons and learn fast
1
                -------------------------------------------------------------------------------
-------------------------------------------------------------------------------


Tuning: Standard

Intro/Verse
e|--------------------------------------------------|
B|--------------------------------------------------|
G|-7-7-7-7-7-7--------------------------------------|
D|-7-7-7-7-7-7-7-7-7-7-7-7-5-5-5-5-5-5-7-7-7-7-7-7--|
A|-5-5-5-5-5-5-7-7-7-7-7-7-5-5-5-5-5-5-7-7-7-7-7-7--|
E|-------------5-5-5-5-5-5-3-3-3-3-3-3-5-5-5-5-5-5--|

Pre Chorus
e|----------------------------------|
B|----------------------------------|
G|----------------------------------|
D|-4-4-4-4-5-5-5-5-7-7-7-7-7-7-7-7--|
A|-4-4-4-4-5-5-5-5-7-7-7-7-7-7-7-7--|
E|-2-2-2-2-3-3-3-3-5-5-5-5-5-5-5-5--|

Chorus
e|--------------------------------------------------------------------------|
B|--------------------------------------------------------------------------|
G|-7-7-7-7-7-7-7-7-10-10-10-10-10-10-10-10-5-5-5-5-5-5-5-5------------------|
D|-7-7-7-7-7-7-7-7-10-10-10-10-10-10-10-10-5-5-5-5-5-5-5-5-7-7-7-7-7-7-7-7--|
A|-5-5-5-5-5-5-5-5-8--8--8--8--8--8--8--8--3-3-3-3-3-3-3-3-7-7-7-7-7-7-7-7--|
E|---------------------------------------------------------5-5-5-5-5-5-5-5--|


Bridge
e|--------------|
B|--------------|
G|-7~-----------|
D|-7~-7~-5~-7~--|
A|-5~-7~-5~-7~--|
E|----5~-3~-5~--|

End on
e|----|
B|----|
G|-7--|
D|-7--|
A|-5--|
E|----|

Intro/Verse x 2
Intro/Verse x 4 (muted)
Pre Chorus  x 2
Chorus      x 4 (hit the A  a couple more times on the 4th time)
Intro/Verse x 2
Intro/Verse x 4 (muted)
Pre Chorus  x 2
Chorus      x 4 (hit the A  a couple more times on the 4th time)
Bridge      x 5
Chorus      x 8 (hit the A  a couple more times on the 4th and 8th time)
            
Submit corrections

comments powered by Disqus
↑ Back to top | Horrorpops Tabs for Undefeated. Lyrics for acoustic guitar and electric guitar. 1 Tablatures and chords are parodies/interpretations of the original songs. You may use it for private study, scholarship, research or language learning purposes only