>
 >
Thanks For Coming 2

Thanks For Coming 2 Guitar Tabs

Hopes Die Last - Thanks For Coming 2 chords, tabs, tablatures, lyrics

Guitar lessons | Add/correct | Request | Top 50 tabs Artists:  A B C D E F G H I J K L M N O P Q R S T U V W X Y Z 0-9

Thanks For Coming 2 Guitar Tabs – Hopes Die Last

CD, Sheet music, Poster

Do you like Thanks For Coming 2? Share with your friends now
Bass TabsTabsTabs v2
Uhm well I only tabbed this song because there was no tab anywhere of this acoustic
WTF.. so yep i think its pre solid.. There is 2 guitars but i think the second one is only
for a short period during near the end and a tad through the chorus.. So listen to the 
to get the timing of the 2 guitars together right :)PLZ!! 'rate' and comment if you
changes :)

----------------------------------------------------------------------------
----------------------------------------------------------------------------

Tuning: Standard


| /   slide up
| h   hammer-on
| p   pull-off
| ~   let ring
| b   Bend


************************************
          GUITAR #ONE:
************************************

Verse 1:
e|-5--------------------5--------------------|
B|-6--------------------6--8-----------------|
G|-7-7-9-7--------------7-7-7----------------| x2
D|-7------7-0-8--10-----7----7-0-8--10-------|
A|-5----------8-8--8-8--5--------8-8--8-8----|
E|------------6-----6------------6-----6-----|

e|-5-----------8--5----------------|
B|-6-6-5-8----6---6-6-5-8----8/10--|
G|-7---------7----7---------7------|
D|-7--------8-----7--------8-------|
A|-5--------8-----5--------8-------|
E|----------6--------------6-------|

e|-5-----------8--5-------------------|
B|-6-6-5-8----6---6-6-5-8----8-8-888--|
G|-7---------7----7---------7----777--|
D|-7--------8-----7--------8----------|
A|-5--------8-----5--------8----------|
E|----------6--------------6----------|

Chorus:
e|------------------------------------------|
B|-6-5-5-5h6p--6-5-5-5h6p------6-5----6-5---|
G|----5------5----5------5--7-5----7-5------| x2
D|--------------------------5------5--------|
A|------------------------------------------|
E|------------------------------------------|

Verse 2:
e|-5--------------------5--------------------|
B|-6--------------------6--8-----------------|
G|-7-7-9-7--------------7-7-7----------------|
D|-7------7-0-8--10-----7----7-0-8--10-------|
A|-5----------8-8--8-8--5--------8-8--8-8----|
E|------------6-----6------------6-----6-----|

e|-5-----------8--5----------------|
B|-6-6-5-8----6---6-6-5-8----8/10--|
G|-7---------7----7---------7------|
D|-7--------8-----7--------8-------|
A|-5--------8-----5--------8-------|
E|----------6--------------6-------|

e|-5-----------8--5-------------------|
B|-6-6-5-8----6---6-6-5-8----8-8-888--|
G|-7---------7----7---------7----777--|
D|-7--------8-----7--------8----------|
A|-5--------8-----5--------8----------|
E|----------6--------------6----------|

Chorus:
e|------------------------------------------|
B|-6-5-5-5h6p--6-5-5-5h6p------6-5----6-5---|
G|----5------5----5------5--7-5----7-5------| x2
D|--------------------------5------5--------|
A|------------------------------------------|
E|------------------------------------------|

e|---------------------|
B|----5-6------8-6-----|
G|-7-5-5-5--7-5-5-5----| x2
D|---------------------|
A|---------------------|
E|---------------------|

Post Chorus:
e|--------------8---|
B|-6~--6~--6~--5-8--|
G|-7~--7~--7~-------| x3
D|--00--00--00------|
A|------------------|
E|------------------|
  And Fourth Time..
e|--------------8----| -------|
B|-6~--6~--6~--5-8---| --6-5--|
G|-7~--7~--7~--------| -------| Repeat
D|--00--00--00-------| -------|
A|-------------------| -------|
E|-------------------| -------|

Bridge:
e|------------------------------------------|
B|-5-5-6-6-5-5-8-6-5h6p--5-5-6-6-5-5--------|
G|--5---5---5-------------5---5---5--7-5-7--|
D|------------------------------------------|
A|------------------------------------------|
E|------------------------------------------|


e|-------------------------------------------|
B|-5-5-6-6-5-5-8-6-5h6p-5-5-6-6-5-5----------|
G|--5---5---5------------5---5---5--7-5-7-7b-|
D|-------------------------------------------|
A|-------------------------------------------|
E|-------------------------------------------|

Chorus:
e|------------------------------------------|
B|-6-5-5-5h6p--6-5-5-5h6p------6-5----6-5---|
G|----5------5----5------5--7-5----7-5------| x2
D|--------------------------5------5--------|
A|------------------------------------------|
E|------------------------------------------|

e|---------------------|
B|----5-6------8-6-----|
G|-7-5-5-5--7-5-5-5----| x4
D|---------------------|
A|---------------------|
E|---------------------|

************************************
          GUITAR #TWO:
************************************

1st Chorus:
e|----------------------|
B|----------------------|
G|--7~---7~---7~---7~---| x2
D|--7~---7~---5~---5~---|
A|--5~---5~-------------|
E|----------------------|

2nd Chorus:
e|----------------------|
B|----------------------|
G|--7~---7~---7~---7~---| x2
D|--7~---7~---5~---5~---|
A|--5~---5~-------------|
E|----------------------|

e|--------|
B|--------|
G|---7~---| x4
D|---5~---|
A|--------|
E|--------|

Post Chorus:
e|-5~--5~--5~--5~--|
B|-6~--6~--6~--6~--|
G|-7~--7~--7~--7~--| x3
D|-0~--0~--0~--0~--|
A|-----------------|
E|-----------------|
  And Fourth Time..
e|-5~--5~--5~--5~--| -------------------------|
B|-6~--6~--6~--6~--| -------------------------|
G|-7~--7~--7~--7~--| -------------------------|
D|-0~--0~--0~--0~--| --3~-------3-2-----------|
A|-----------------| --3~--3-5-3---3----------|
E|-----------------| --1~---------------------|

Bridge:
e|----------------------------|             ------|
B|----------------------------|             ------|
G|---5--5--5--5--5--5--5-5----| x2 end with --5~--|
D|--5--5--5--5--5--5--5---5---|             --5~--|
A|-3--3--------0--0--3-----3--|             --3~--|
E|-------3--3-----------------|             ------|

3rd Chorus:
e|----------------------|
B|----------------------|
G|--7~---7~---7~---7~---| x2
D|--7~---7~---5~---5~---|
A|--5~---5~-------------|
E|----------------------|

e|--------|    -------|
B|--------|    -------|
G|---7~---| x8 -------|
D|---5~---|    --8~---|
A|--------|    --8~---|
E|--------|    --6~---|

************************************





Comments


Popular Hopes Die Last tabs & chords
Call Me Sick Boy Bass Tabs
Thanks For Coming Bass Tabs
Icarus Halfway Across The Sky Chords
Lastnight's Goodbye Chords
Call Me Sick Boy Tabs
I Belong To The Skies 1 Tabs
Never Trust The Hazel Eyed Tabs
Tempus Vincit Omnia Tabs
Thanks For Coming Tabs
Lastnights Goodbye Ukulele


Song lyrics



↑ Back to top | Tablatures and chords are parodies/interpretations of the original songs. You may use it for private study, scholarship, research or language learning purposes only
© 2014 AZChords.com Contact us | Privacy policy | DMCA | Add/correct tabs | Request tabs | Top 50 tabs