» » »

Hombres G, Te Quiero Tabs (ver.3)

Artists:  A B C D E F G H I J K L M N O P Q R S T U V W X Y Z # 

Te Quiero Tabs (ver.3)

Hombres G Tabs
 Rating:
4.2/5 (5 votes)
Te Quiero lessons Tabs too difficult? Try these video lessons and learn fast
                Somg title: Te Quiero


Intro

e-------------------------------------------------
B-------------------------------------------------
G-------------------------------------------------
D-------------------------------------------------
A------5--5-5-----5--5-5------5-----5-----5--5-5--
E--5-7--------5-7---------5-7---5-7---5-7---------


 Play the verses with: D - Bm -F#m -F/F#m -G -A -D -A

Riff 1:

when finish the second verses play this:

A------5-----5-----5------------------------
E--5-7---5-7---5-7--------------------------

Solo:

E------------------------------------------------------------------------------
B—10h12---10h12-12-10---------------------------------------------------------
G----------------------------11-12-11--9/7-----7-9/11-11-11-9*11----------------
D----------------------------------------------9-------------------------------
A------------------------------------------------------------------------------
E------------------------------------------------------------------------------


E------------------------------------------------------------------------------
B---------------------------------------------------------9/12-12-12-12-10-----
G-9-9-9h7----------------------------------7-9~9~-7----------------------------
D-----------9-7-9-7-9------------------7-9-------------------------------------
A-----------------------9-10-9-7---7-9-----------------------------------------
E----------------------------------10------------------------------------------

E--7/10-12-10-10/17-15-14-17-17-17-17/19-17-17/19--19/17-----------------------
B------------------------------------------------------------------------------
G------------------------------------------------------------------------------
D------------------------------------------------------------------------------
A------------------------------------------------------------------------------
E------------------------------------------------------------------------------

E----15-15-15h14---------------10---------12---------10-12/14-14-14--12--------
B--------------------15—10h12-------10h12-----10h12----------------------------
G------------------------------------------------------------------------------
D------------------------------------------------------------------------------
A------------------------------------------------------------------------------
E------------------------------------------------------------------------------

That's all.... 
enjoy 
            
Submit corrections

comments powered by Disqus
↑ Back to top | Hombres G Tabs for Te Quiero. Lyrics for acoustic guitar and electric guitar. Tablatures and chords are parodies/interpretations of the original songs. You may use it for private study, scholarship, research or language learning purposes only